PrimaNota.ru - самый крупный в мире бесплатный архив песенных текстов, аккордов, табулатур и нот


Fleetwood Mac - World In Harmony - таба, видео

Регистрация Запомнить меня
Войти через:  Facebook Google Twitter Vk Yandex Mail.ru

Fleetwood Mac - World In Harmony - таба, видео

Печатать
Просмотров: 45
Уроки эстрадного вокала в Санкт-Петербурге
-----------------------------------------------------------------
                 World In Harmony - Fleetwood Mac
-----------------------------------------------------------------

Tabbed By : Aeonoptic
e-mail: aeonoptic@gmail.com

Tuning: EADGBe

Guitar 1

  C7
E|---------|----------|---------|----------|---------|----------|---------|----------|
B|------6-5|3---------|------6-5|3---------|------6-5|3---------|------6-5|3---------|
G|----3----|--3-5-3---|----3----|--3-5-3---|----3----|--3-5-3---|----3----|--3-5-3---|
D|--5------|---------5|--5------|---------5|--5------|---------5|--5------|---------5|
A|3--------|----------|3--------|----------|3--------|----------|3--------|----------|
E|---------|----------|---------|----------|---------|----------|---------|----------|

E|-----------|---------|-----------|---------|-----------|---------|-----------|---------|
B|--------3--|---------|--------3--|---------|--------3--|---------|--------3--|---------|
G|----3h5---5|3---3----|----3h5---5|3---3----|----3h5---5|3---3----|----3h5---5|3---3----|
D|--5--------|--5---5--|--5--------|--5---5--|--5--------|--5---5--|--5--------|--5---5--|
A|3----------|--------5|3----------|--------5|3----------|--------5|3----------|--------5|
E|-----------|---------|-----------|---------|-----------|---------|-----------|---------|

E|---------|----------|---------|----------|---------|----------|---------|----------|
B|------6-5|3---------|------6-5|3---------|------6-5|3---------|------6-5|3---------|
G|----3----|--3-5-3---|----3----|--3-5-3---|----3----|--3-5-3---|----3----|--3-5-3---|
D|--5------|---------5|--5------|---------5|--5------|---------5|--5------|---------5|
A|3--------|----------|3--------|----------|3--------|----------|3--------|----------|
E|---------|----------|---------|----------|---------|----------|---------|----------|

  F
E|---------------------|---------------|------8-10-13h17|13-12p10\8-17---|
B|---10----10-10/13-13~|13pbr15--------|---10-----------|----------------|
G|10-------------------|--------14b15~~|10--------------|--------------15|
D|------10-------------|---------------|----------------|----------------|
A|---------------------|---------------|----------------|----------------|
E|---------------------|---------------|----------------|----------------|

                                                                D F
E|-----------------|-----------8----|-------------|--------------|------------|
B|-----------------|-------------11\|-----------10|----------10--|----------10|
G|-----------------|10--9h10p9------|----5-7/10---|10-9h10p9----7|10-9h10p9---|
D|--7---7-8/10-10~~|----------------|--7----------|-------------5|------------|
A|8---8------------|----------------|8------------|--------------|------------|
E|-----------------|----------------|-------------|--------------|------------|

  C7
E|-----------|---------|-----------|---------|---------|---------|---------|---------|
B|--------3--|---------|--------3--|---------|------6-5|3--------|------6-5|3--------|
G|----3h5---5|3---3----|----3h5---5|3---3----|----3----|--3-5-3--|----3----|--3-5-3-3|
D|--5--------|--5---5--|--5--------|--5---5--|--5------|--------5|--5------|---------|
A|3----------|--------5|3----------|--------5|3--------|---------|3--------|---------|
E|-----------|---------|-----------|---------|---------|---------|---------|---------|

  D
E|------------------|----------------|-------------------|----------------|
B|------------------|----------------|-------------------|----------------|
G|------------------|----------------|-------------------|----------------|
D|------------------|----------------|-------------------|----------------|
A|12-12---14--15--14|12--11--12-12-12|12--12---14--15--14|12--11--12-12-12| x4, with the final bar halved
E|10-10---10--10--10|10--10--10-10-10|10--10---10--10--10|10--10--10-10-10|     on last repeat
  
  C7
E|--------------------|--------------------|----------------------|----------------------|
B|------6-5--3--------|------6-5--3--------|--------3-------------|--------3-------------|
G|----3--------3-5-3--|----3--------3-5-3--|----3h5---5--3---3----|----3h5---5--3---3----|
D|--5----------------5|--5----------------5|--5------------5---5--|--5------------5---5--|
A|3-------------------|3-------------------|3--------------------5|3--------------------5|
E|--------------------|--------------------|----------------------|----------------------|
  
  F
E|--------------------------------------|------8-10-13h17--13-12h13p12-17---|
B|---10----10-10/13-13~--13pbr15--------|---10------------------------------|
G|10-----------------------------14b15~~|10-------------------------------15|
D|------10------------------------------|-----------------------------------|
A|--------------------------------------|-----------------------------------|
E|--------------------------------------|-----------------------------------|

E|-----------------|-----------8----|-------------|--------------|------------|
B|-----------------|-------------11\|-----------10|----------10--|----------10|
G|-----------------|10--9h10p9------|----5-7/10---|10-9h10p9----7|10-9h10p9---|
D|--7---7-8/10-10~~|----------------|--7----------|-------------5|------------|
A|8---8------------|----------------|8------------|--------------|------------|
E|-----------------|----------------|-------------|--------------|------------|

  C7
E|---------|---------|---------|---------|-----------|---------|---|
B|------6-5|3--------|------6-5|3--------|--------3--|---------|---|
G|----3----|--3-5-3--|----3----|--3-5-3--|----3h5---5|3---3----|---|
D|--5------|--------5|--5------|--------5|--5--------|--5---5--|---|
A|3--------|---------|3--------|---------|3----------|--------5|3--|
E|---------|---------|---------|---------|-----------|---------|---|

End

Guitar 2

  C7
E|---------------------|---------|----------|---------|---------|---------|---------|
B|---------------------|------6-5|3---------|------6-5|3--------|------6-5|3--------|
G|---------------------|----3----|--3-5-3---|----3----|--3-5-3--|----3----|--3-5-3--|
D|---------------------|--5------|---------5|--5------|--------5|--5------|--------5|
A|---------------------|3--------|----------|3--------|---------|3--------|---------|
E|---------------------|---------|----------|---------|---------|---------|---------|

E|---------|-------|
B|--------3|--3----|
G|----3h5--|3---3--| x4
D|--5------|------5|
A|3--------|-------|
E|---------|-------|
  
E|3-----5/6-5|3-----------|
B|--6-5------|--6-5--3-5-6|
G|-----------|------------|
D|-----------|------------| x4
A|-----------|------------|
E|-----------|------------|

  F
E|------------------|---------------|-------------------17~|------------17---|
B|--------6-8/10-10~|10pbr12--------|----------------------|15-13h15p13------|
G|------------------|--------10b12~~|-------10-10/12-14----|---------------15|
D|/7-10-------------|---------------|5/7-10----------------|-----------------|
A|------8-----------|---------------|----------------------|-----------------|
E|------------------|---------------|----------------------|-----------------|
  
E|---------------|----------------|-------------|--------------|----------|
B|---------------|----------------|-------------|--------6\----|--------6\|
G|---------------|3-2h3p2---2~----|-------------|7-5h7p5-------|7-5h7p5---|
D|-------3-5/7-7~|--------3-----5\|------5-7/10~|------------5~|----------|
A|--3------------|----------------|----8--------|--------------|----------|
E|1---1----------|----------------|5-8----------|--------------|----------|
  
E|--------3|----5/6-5|3-----------|--------3|----5/6-5|3-----------|3-----5/6-5|6/8-6--5-3-5-6|
B|---------|6-5------|--6-5--3-5-6|---------|6-5------|--6-5--3-5-6|--6-5------|--------------|
G|----3h5--|---------|------------|----3h5--|---------|------------|-----------|--------------|
D|--5------|---------|------------|--5------|---------|------------|-----------|--------------|
A|3--------|---------|------------|3--------|---------|------------|-----------|--------------|
E|---------|---------|------------|---------|---------|------------|-----------|--------------|

                           D 
E|6-5\3--1-3--3|----3-----|--------------|--------------|-------------|-----------|
B|-------------|6-6-5--3--|3-3-3-3--3---3|5-6-6\5--3-3-3|3-1/3-3-3-3/5|5b6-5-1-1-1|
G|-------------|---------5|-----------5--|--------------|-------------|-----------|
D|-------------|----------|--------------|--------------|-------------|-----------|
A|-------------|----------|--------------|--------------|-------------|-----------|
E|-------------|----------|--------------|--------------|-------------|-----------|
  
E|----------------------------|---------------|-------------|5-5-5-5--5---|-----5-5--5-5|
B|---1-3-1-----1-3-1-3--------|---------------|-------------|6-6-6-6--6---|-----6-6--6-6|
G|/2--------/2---------2\0----|--------7-5-7-5|-------------|-----------7~|5-7----------|
D|-------------------------3-0|3-5-5/7--------|3-5---3-5----|-------------|-------------|
A|----------------------------|---------------|----------5--|-------------|-------------|
E|----------------------------|---------------|------------5|-------------|-------------|
  
E|5-5--------|--7--5--|---------|------------|------------------|------------|
B|6-6---8-6--|--8--6--|------6b7|----6~--8b10|6-8pbr10----6-8b10|6br8----6---|
G|----7-----7|7------7|7-5-7----|5-7---------|----------7-------|-----7----7\|
D|-----------|--------|---------|------------|------------------|------------|
A|-----------|--------|---------|------------|------------------|------------|
E|-----------|--------|---------|------------|------------------|------------|
  
  C7
E|-----|--------------------|--------------------|--------------------|
B|-----|------6-5--3--------|------6-5--3---3----|------6-5--3---3----|
G|-----|----3--------3-5-3--|----3--------3---3--|----3--------3---3--|
D|-----|--5----------------5|--5----------------5|--5----------------5|
A|-----|3-------------------|3-------------------|3-------------------|
E|-----|--------------------|--------------------|--------------------|
  
  F
E|---------------------|---------------|---------------17|--------------17----|----------------|
B|-------------8/10-10~|10pbr12--------|-----------------|15--13h15p13--------|----------------|
G|----------10---------|--------10b11~~|---------12-14---|-----------------15~|----------------|
D|7-8-10---------------|---------------|------15---------|--------------------|7-10------5/7-7~|
A|-------8-------------|---------------|12-15------------|--------------------|-----8--8-------|
E|---------------------|---------------|-----------------|--------------------|----------------|
  
E|---------------|---------------|-----------------|---------------|
B|---------------|---------------|-----------------|---------------|
G|---------------|---------------|------------10---|------------10~|
D|8-7h8p7----7--5|7-10------7/10~|12-10h12p10------|12-10h12p10----|
A|--------8------|-----8-10------|---------------10|---------------|
E|---------------|---------------|-----------------|---------------|
  
  C7
E|--------6|5-3--|--------|3------3------|3-------------|3-------6-5|3-----------|----|
B|---------|----6|5--3-5-6|--6-5----6-5-6|--6-5-5--3-5-6|--6-5/6----|--6-5-3--5-6|8~--|
G|----3h5--|-----|--------|--------------|--------------|-----------|------------|----|
D|--5------|-----|--------|--------------|--------------|-----------|------------|----|
A|3--------|-----|--------|--------------|--------------|-----------|------------|----|
E|---------|-----|--------|--------------|--------------|-----------|------------|----|
  
| /  slide up
| \  slide down
| h  hammer-on
| p  pull-off
| ~  vibrato
| +  harmonic
| x  Mute note
Добавлено: 05.04.2016
Другие материалы по этой песне:

Страница создана 17.04.2012
http://primanota.ru/fleetwood-mac/world-in-harmony-chords.htm
Привет, Гость.
Предлагаем пройти революционный курс по гитаре.
Подарок от PrimaNota.Ru, забирай!