PrimaNota.ru - самый крупный в мире бесплатный архив песенных текстов, аккордов, табулатур и нот


Fleetwood Mac - The Way I Feel - аккорды и текст, видео

Регистрация Запомнить меня
Войти через:  Facebook Google Twitter Vk Yandex Mail.ru

Fleetwood Mac - The Way I Feel - аккорды и текст, видео

Печатать
Просмотров: 137
Уроки эстрадного вокала в Санкт-Петербурге
The Way I Feel
Fleetwood Mac
SONG:   THE WAY I FEEL
ARTIST: FLEETWOOD MAC
TAB BY: DON CZARSKI
EMAIL:  GUITARZAN7@HOTMAIL.COM


          THE WAY I FEEL
           FLEETWOOD MAC

INTRO:
C Bb Am F
C Bb Am F
C Bb Am F
C Bb Am F


VERSE:
C                   Bb 
Once in everyone's life
Am             F              C   Bb Am F
   You know a feeling has to grow
         C              Bb   Am
And you may be having a bad time
                 F               C   Bb Am F
And you really shouldn't let it show


PRE-CHORUS
        G        C            G
You're taking a risk, but it doesn't matter
          Am                       F   G
'Cos you know, you know that it's real


CHORUS:
C  Am       Dm
I can't conceal 
     C   Am     Dm
The way that I feel
C           Bb      Am
I can't conceal the way, 
     F          C
The way that I feel

E -------------8--------12--
B ------5-------------------
G ---------7/9----10/12-----
D --3/5---------------------
A --------------------------
E --------------------------

                 
VERSE:
           C           Bb  Am
How many times have I told you
F       C   Bb  Am F
Oh, I adore you
    C                Bb     Am
And if it meant anything at all
 F          C        Bb Am  F
I'd do anything for yooooou


PRE-CHORUS:
          G   C          G
But it's too late and I know I'm making
   Am                F
A fool, a fool of myself


CHORUS:
C  Am       Dm
I can't conceal 
     C   Am     Dm
The way that I feel
C           Bb      Am
I can't conceal the way, 
     F          C
The way that I feel

E -------------8--------12--
B ------5-------------------
G ---------7/9----10/12-----
D --3/5---------------------
A --------------------------
E --------------------------

OUTRO:
C Bb Am F
C Bb Am F
C Bb Am F
C Bb Am F  C

E -------------8--------12-----
B ------5----------------------
G ---------7/9----10/12----12--
D --3/5------------------------
A -----------------------------
E -----------------------------
Добавлено: 20.09.2015
Другие материалы по этой песне:
  • Аккорды и текст

Страница создана 25.07.2012
http://primanota.ru/fleetwood-mac/the-way-i-feel-chords.htm
Привет, Гость.
Предлагаем пройти революционный курс по гитаре.
Подарок от PrimaNota.Ru, забирай!