PrimaNota.ru - самый крупный в мире бесплатный архив песенных текстов, аккордов, табулатур и нот


Fleetwood Mac - Stop Messing Around - таба, видео

Регистрация Запомнить меня
Войти через:  Facebook Google Twitter Vk Yandex Mail.ru

Fleetwood Mac - Stop Messing Around - таба, видео

Печатать
Просмотров: 112
Stop Messing around
Peter Greens Fleetwood Mac
Such a fun song to play and improvise on, 
let me know of any wrong parts, i'm sure its correct but ya never know
   / = slide
   p = pull off
   h = hammer on
  fb = full bend
  hb = half bend
hb-r = half bend then release

Intro
|-----8--8---------8--8--8---8---------------------------------------|
|-8-11-11--------11-11-11-----11-8-----------------------------------|
|---------------------------------10-8-------10hb-r-8----------------|
|-------------------------------------10-10-8--------10-8------------|
|--------------------------------------------------------10-8-6------|
|--------------------------------------------------------------8-8-8-|

|----8---15fb-15------8p10--8----10hb-r-8--8-----|
|-/11---------------10----10-10----------10-10\--|
|------------------------------------------------|
|------------------------------------------------|
|------------------------------------------------|
|------------------------------------------------|
  0:28
|---8-------|
|-10-10-8---|
|-----------|
|--------10-|
|-----------|
|-----------|
  0:45
|---8--8--8--11fb-11-8-------------------|
|-11-11-11------------11-8---------------|
|-------------------------10fb-10-8------|
|----------------------------------10-10-|
|----------------------------------------|
|----------------------------------------|

|---8-10hb----8----8-10hb-10hb----8-10---8--8---10hb-10hb--15p13-------|
|-10--------10-10---------------10-----10-10--10-----------------15-13-|
|----------------------------------------------------------------------|
|----------------------------------------------------------------------|
|----------------------------------------------------------------------|
|----------------------------------------------------------------------|

|-15fb-15-----8-10--8--10----10hb-r-8--8-----|
|-----------10----10-----------------10-10\--|
|--------------------------------------------|
|--------------------------------------------|
|--------------------------------------------|
|--------------------------------------------|
  1:28
|-11fb-11--8-8--8-x---8--8---8-x---8-----------------|
|-------------------11-11--------11------------------|
|------------------------------------10fb-10-8-------|
|----------------------------------------------10-10-|
|----------------------------------------------------|
|----------------------------------------------------|

|---------------------------------------------------------------|
|------8------------------------8--8-8------------------8--8-8--|
|------8---10hb-10-8------------8--8-8------------------8--8-8--|
|-8-10---------------10-8h10-10-------10-8h10-10-----10---------|
|---------------------------------------------------------------|
|---------------------------------------------------------------|

|--------------------------------------|
|------------8--8-8----------8--8-8----|
|------------8--8-8----------8--8-8----|
|-10-8h10-10--------18h10-10--------10-|
|--------------------------------------|
|--------------------------------------|

|----8-8--8-----8-8--8----8-11fb-11-8--8-10--8---11fb-11-11fb-11-|
|-/10--------/10-------/10-----------10----10-10-----------------|
|----------------------------------------------------------------|
|----------------------------------------------------------------|
|----------------------------------------------------------------|
|----------------------------------------------------------------|

|-8--88----11fb-11-8--88---15b18-15-15b18-15-13--------|
|--10---10----------10-------------------------15-13---|
|------------------------------------------------------|
|------------------------------------------------------|
|------------------------------------------------------|
|------------------------------------------------------|

|---11fb-11-8---8h10--8----|-------8--8---10fb-10fb--8----------------|
|-10----------10----10-10\-|---8-10-10--10---------10-10---------8-10-|
|--------------------------|---8------------------------8-7------8-10-|
|--------------------------|-10----------------------------10-7-------|
|--------------------------|------------------------------------------|
|--------------------------|------------------------------------------|

|--------------9-8---8--|
|--------------9-8---8--|
|-8------------------8--|     THE END
|--10-8--8--------------|
|------10-8-10----------|
|-----------------------|

hope this helps everyone

Добавлено: 27.05.2012
Другие материалы по этой песне:
  • Аккорды и текст

Страница создана 27.05.2012
http://primanota.ru/fleetwood-mac/stop-messing-around-chords.htm
Привет, Гость.
Предлагаем пройти революционный курс по гитаре.
Подарок от PrimaNota.Ru, забирай!