PrimaNota.ru - самый крупный в мире бесплатный архив песенных текстов, аккордов, табулатур и нот


Fleetwood Mac - Station Man - текст песни, таба, видео

Регистрация Запомнить меня
Войти через:  Facebook Google Twitter Vk Yandex Mail.ru

Fleetwood Mac - Station Man - текст песни, таба, видео

Печатать
Просмотров: 125
From: jashaw@shaw-web.net(John Shaw)
Subject: Fleetwood Mac/Station Man 


    A (8 bars or so)              A   (last time before verse)
|--------------|--------------2-|----------------|
|-2-2-2-2-2-22-|-2-2---------2--|-2-2-2-2-2-22---|
|-2-2-2-2-2-22-|----4422----2---|-2-2-2-2-2---42-|
|-2-4-2-4-2-42-|--------44-2----|-2-4-2-4-2------|
|-0-0-0-0-0-00-|----------------|-0-0-0-0-0------|
|--------------|----------------|----------------|

  A                               A
|--------------|--------------2-|----------------|--------------2-|
|-2-2-2-2-2-22-|-2-2---------2--|-2-2-2-2-2-22---|-2-2---------2--|
|-2-2-2-2-2-22-|----4422----2---|-2-2-2-2-2---42-|----4422----2---|
|-2-4-2-4-2-42-|--------44-2----|-2-4-2-4-2------|--------44-2----|
|-0-0-0-0-0-00-|----------------|-0-0-0-0-0------|----------------|
|--------------|----------------|----------------|----------------|
  Station man,                    I've been waiting, 

  A                              A
|--------------|-------------2-|----------------|--------------------|
|-2-2-2-2-2-22-|-22---------2--|-2-2-2-2-2-22---|-22-----------------|
|-2-2-2-2-2-22-|---4422----2---|-2-2-2-2-2---42-|---4422-------------|
|-2-4-2-4-2-42-|-------44-2----|-2-4-2-4-2------|-------44-2---------|
|-0-0-0-0-0-00-|---------------|-0-0-0-0-0------|-----------345345---|
|--------------|---------------|----------------|-----------------345|
  Can you tell me,                When we're leaving

(repeat 4x)        A                              A
|----------------|--------------|-------------2-|----------------|
|----------------|-2-2-2-2-2-22-|-22---------2--|-2-2-2-2-2-22---|
|----------------|-2-2-2-2-2-22-|---4422----2---|-2-2-2-2-2---42-|
|-7--------------|-2-4-2-4-2-42-|-------44-2----|-2-4-2-4-2------|
|-------345345---|-0-0-0-0-0-00-|---------------|-0-0-0-0-0------|
|-----5-------345|--------------|---------------|----------------|
                   Midnight train,                Now is leaving

  A               A (Short Lead Break)           A
|-------------2-|--------------|-------------2-|----------------|
|-22---------2--|-2-2-2-2-2-22-|-22---------2--|-2-2-2-2-2-22---|
|---4422----2---|-2-2-2-2-2-22-|---4422----2---|-2-2-2-2-2---42-|
|-------44-2----|-2-4-2-4-2-42-|-------44-2----|-2-4-2-4-2------|
|---------------|-0-0-0-0-0-00-|---------------|-0-0-0-0-0------|
|---------------|--------------|---------------|----------------|
                                                 Engine screaming
                     A    NC           A     NC          A    NC  
|------------------|-----------------|-----------------|-----------------|
|-22---------------|-2---------------|-2---------------|-2---------------|
|---4422-----------|-2---------------|-2---------------|-2---------------|
|-------44-2-------|-2---------------|-2---------------|-2---------------|
|------------567---|-0--------567----|-0--------567----|-0--------567----|
|---------------345|-------------345-|-------------345-|-------------345-|
                      Ah, ah             Ah, ah           Ah, ah

  A      NC         A                 NC
|-----------------|--------------------------------------|
|-2---------------|-2------------------------------------|
|-2---------------|-2------------------------------------|
|-2---------------|-2------------------------------------|
|-0--------567----|-0-----------------------------567----|
|-------------345-|----------------------------------345-|
    Ah, ah            Where I'm going I don't know

  A                 NC                A                    NC
|-----------------------------------|------------------------------------------|
|-2---------------------------------|-2----------------------------------------|
|-2---------------------------------|-2----------------------------------------|
|-2---------------------------------|-2----------------------------------------|
|-0--------------------------567----|-0---------------------------------567----|
|-------------------------------345-|--------------------------------------345-|
    But you tell me I must go,           When we're leaving I don't know

                         D       A (Repeat measure 5x)
|-----------------------|2-2-2-2----------|
|-2---------------------|3-3-3-3p2-2-2-2-2|
|-2---------------------|2-2-2-2-2-2-2-2-2|
|-2---------------------|4-4-4-4p2-2-2-2-2|
|-0---------------------|-----------------|
|-----------------------|-----------------|
    But you tell me now
 D       A          D       A
|2-2-2-2----------|-2-2-2-2----------|
|3-3-3-3p2-2-2-2-2|-3-3-3-3p2-2-2-2-2|
|2-2-2-2-2-2-2-2-2|-2-2-2-2-2-2-2-2-2|
|4-4-4-4p2-2-2-2-2|-4-4-4-4p2-2-2-2-2|
|-----------------|------------------|
|-----------------|------------------|
I see it's coming   And bringing something

 D       A          D       A 
|2-2-2-2----------|-2-2-2-2----------|
|3-3-3-3p2-2-2-2-2|-3-3-3-3p2-2-2-2-2|
|2-2-2-2-2-2-2-2-2|-2-2-2-2-2-2-2-2-2|
|4-4-4-4p2-2-2-2-2|-4-4-4-4p2-2-2-2-2|
|-----------------|------------------|
|-----------------|------------------|
This train of lovin', I see it's comin'

 D       A          D       A 
|2-2-2-2----------|-2-2-2-2----------|
|3-3-3-3p2-2-2-2-2|-3-3-3-3p2-2-2-2-2|
|2-2-2-2-2-2-2-2-2|-2-2-2-2-2-2-2-2-2|
|4-4-4-4p2-2-2-2-2|-4-4-4-4p2-2-2-2-2|
|-----------------|------------------|
|-----------------|------------------|
I feel it's runnin' This train of lovin'

  D       F#  G  (repeat 6x)       D       F#  G (repeat 5x)
 |2-2-2-2-2---3|-2-2-2-2----------|2-2-2-2-2---3|-2-2-2-2----------|
 |3-3-3-3-2---3|-3-3-3-3 2-2-2-2-2|3-3-3-3-2---3|-3-3-3-3 2-2-2-2-2|
 |2-2-2-2-3---4|-2-2-2-2-2-2-2-2-2|2-2-2-2-3---4|-2-2-2-2-2-2-2-2-2|
 |4-4-4-4-4---5|-4-4-4-4 2-2-2-2-2|4-4-4-4-4---5|-4-4-4-4 2-2-2-2-2|
 |--------4---5|------------------|--------4---5|------------------|
 |--------2---3|------------------|--------2---3|------------------|
From ages past     (Lead Break Verse)

  A
|--------------|--------------2-|----------------|--------------2-|
|-2-2-2-2-2-22-|-2-2---------2--|-2-2-2-2-2-22---|-2-2---------2--|
|-2-2-2-2-2-22-|----4422----2---|-2-2-2-2-2---42-|----4422----2---|
|-2-4-2-4-2-42-|--------44-2----|-2-4-2-4-2------|--------44-2----|
|-0-0-0-0-0-00-|----------------|-0-0-0-0-0------|----------------|
|--------------|----------------|----------------|----------------|
  Station man,                    I've been waiting, 

  A
|--------------|-------------2-|----------------|--------------------|
|-2-2-2-2-2-22-|-22---------2--|-2-2-2-2-2-22---|-22-----------------|
|-2-2-2-2-2-22-|---4422----2---|-2-2-2-2-2---42-|---4422-------------|
|-2-4-2-4-2-42-|-------44-2----|-2-4-2-4-2------|-------44-2---------|
|-0-0-0-0-0-00-|---------------|-0-0-0-0-0------|-----------345345---|
|--------------|---------------|----------------|-----------------345|
  Can you tell me,                When we're leaving

(repeat 4x)       (Repeat with final lead & fade)
|----------------|----------------|
|----------------|----------------|
|----------------|----------------|
|-7--------------|---7------------|
|-------345345---|-7-----345345---|
|-----5-------345|----5--------345|
Добавлено: 21.03.2012
Другие материалы по этой песне:
  • Аккорды и текст

Страница создана 21.03.2012
http://primanota.ru/fleetwood-mac/station-man-chords.htm
Привет, Гость.
Предлагаем пройти революционный курс по гитаре.
Подарок от PrimaNota.Ru, забирай!