PrimaNota.ru - самый крупный в мире бесплатный архив песенных текстов, аккордов, табулатур и нот


Fleetwood Mac - Rollin' Man - текст песни, таба, бас-таба, видео

Регистрация Запомнить меня
Войти через:  Facebook Google Twitter Vk Yandex Mail.ru

Fleetwood Mac - Rollin' Man - текст песни, таба, бас-таба, видео

Печатать
Просмотров: 119
                                          Artist - Fleetwood Mac
                                         ************************
                                            Song - Rollin Man 
                                           *******************
                                           Album - Mr Wonderful
                                          **********************
                                           Tabbed By - Ayreon77
                                          **********************



INTRO - SECTION 1
******  **********
[-----------------|-----------------|-------------------|-----------------]
[-10-8------------|-10-8------------|-10-8--------------|-10-8------------]
[------9------6-9-|------9------6-9-|------9------6-7-9-|------9------6-9-]
[--------7-10-----|--------7-10-----|--------7-10-------|--------7-10-----]
[-----------------|-----------------|-------------------|-----------------]
[-----------------|-----------------|-------------------|-----------------]


[---p--------------|---------------|---]
[-10-8-------------|-10-8----------|---]
[-----9------6-7-9-|------9------6-|---]
[-------7-10-------|--------7-10---|-7-]
[------------------|---------------|-7-]
[------------------|---------------|---]

------------------------------------
VERSE 1
********           
Oh baby,                         
Don't you want a man like me

[-------]
[--h--5-]
[-5-6---]
[-------]
[-------]
[-------]

Oh baby,
  
[-5-]
[-5-]
[-5-]
[---]
[---]
[---]

Don't you want a man like me

[-------]
[-7-5---]
[-7-5-7-]
[-----7-]
[-------]
[-------]

I could give you so much lovin'
More than one woman ever seen

------------------------------------
VERSE 2
******** 
Oh baby

[-------]
[-7-5---]
[-7-5-7-]
[-----7-]
[-------]
[-------]

Make some love tonight
     b
[---5-7-]
[-7-----]
[-------]
[-------]
[-------]
[-------]

Oh baby,
We're gonna make some love tonight

[-------]
[-7-5---]
[-7-5-7-]
[-----7-]
[-------]
[-------] 

Well be rollin' out the blankets
I'm gonna make you feel alright

------------------------------------
SOLO 1
*******                                        b
[--------b---b----|-----------------------|-12-12-10----------]
[----10-12--12-10-|----10-10-----10-12-10-|----------13----10-]
[-11--------------|-11--------11----------|-------------11----]
[-----------------|-----------------------|-------------------]
[-----------------|-----------------------|-------------------]
[-----------------|-----------------------|-------------------]

                     b                                    
[--------b---b----|-12-12--br------|-------------10-12----]
[----10-12--12-10-|-------12-10-12-|-------10-13-------10-]
[-11--------------|----------------|----11----------------]
[-----------------|----------------|-12-------------------]
[-----------------|----------------|----------------------]
[-----------------|----------------|----------------------]

   b
[-12-12-10----------|--------b--b--------|------------h------------]
[----------13-12-10-|----10-12----10-----|----10----10-12----10-12-]
[-------------------|-11--------------11-|-11----11-------11-------]
[-------------------|--------------------|-------------------------]
[-------------------|--------------------|-------------------------]
[-------------------|--------------------|-------------------------]

   b   p                                                   rake
[-12-12-10-----------b-r-b-r-b-|--------------------------|---12-------]
[----------13-10----12---------|----10-10--------12----10-|-10---13-10-]
[----------------11------------|-11--------11-11----11----|------------]
[------------------------------|--------------------------|------------]
[------------------------------|--------------------------|------------]
[------------------------------|--------------------------|------------]


[-------------]
[----10-12-10-]
[-11----------]
[-------------]
[-------------]
[-------------]


------------------------------------
VERSE 3
******** 
I'm your rollin' man
I've got all the love you need

[-------]
[-7-5---]
[-7-5-7-]
[-----7-]
[-------]
[-------] 

Rollin' man
Got all the love you need

[-------]
[-7-5---]
[-7-5-7-]
[-----7-]
[-------]
[-------]
 
I've got so much lovin'
More than you've ever seen

------------------------------------
SECTION 1 a little bit diff than beggining
*********
[-----------------|--------------------|-------------------]
[-10-8------------|-10-8------------10-|-10-8--------------]
[------9------6-9-|------9------6-9----|------9------6-7-9-]
[--------7-10-----|--------7-10--------|--------7-10-------]
[-----------------|--------------------|-------------------]
[-----------------|--------------------|-------------------]


[---p---------------|-----------------|--------------------]
[-10-8-----------10-|-10-8---7-----10-|-10-8------------10-]
[-----9------6-9----|------9---7-9----|------9------6-9----]
[-------7-10--------|-----------------|--------7-10--------]
[-------------------|-----------------|--------------------]
[-------------------|-----------------|--------------------]


------------------------------------
SOLO 2
*******             b                         h p
[-b---------------|-8-8-5--p------------|-b--5-8-5---5-------------]
[-8-8-6-b---------|-------8-5-b---------|-8--------8---8-5-b-------]
[-------7-7-5-----|-----------7-7-5--p--|------------------7-7-5---]
[-------------7-5-|-----------------7-5-|------------------------7-]
[-----------------|---------------------|--------------------------]
[-----------------|---------------------|--------------------------]

                                                          p
[---------|---------------------------|-----------------12-10-------]
[-5-7-5---|---------br----------------|----10-10--------------13-10-]
[-5-7-5---|-----5---7-5---------------|-11--------11-11-------------]
[-------7-|-4-7---7------7-5----------|-----------------------------]
[---------|------------------7--5-----|-----------------------------]
[---------|-----------------------8-5-|-----------------------------]

   b                                   b     b
[-12--12-10-------|-----------------|-12-12-12-12-10-------]
[-----------13-10-|----12----10-----|----------------13-10-]
[-----------------|-11----11-----11-|----------------------]
[-----------------|-----------------|----------------------]
[-----------------|-----------------|----------------------]
[-----------------|-----------------|----------------------]

   b
[-12--12-10-----------b---b---b---b-----------b-r-b----]
[-----------13-10----12--12--12--12-10-------12-----10-]
[-----------------11-------------------11-11-----------]
[------------------------------------------------------]
[------------------------------------------------------]
[------------------------------------------------------]

   b   p
[-12-12-10-----------b--b-|------h------------|--brp--------h----b----------]
[----------13-10----12-12-|----10-12----10----|-12--10----10-12-12----10----]
[----------------11-------|-11-------11----11-|--------11----------11----11-]
[-------------------------|-------------------|-----------------------------]
[-------------------------|-------------------|-----------------------------]
[-------------------------|-------------------|-----------------------------]
start fading out
   b                                                       
[-12-12-10-------|-------------|--b---b--b----------------]
[----------13-10-|----13----10-|-15--15-15-15-13-------13-]
[----------------|-11----11----|-----------------14-14----]
[----------------|-------------|--------------------------]
[----------------|-------------|--------------------------]
[----------------|-------------|--------------------------]

   b
[-15--15-12-----rbp------]
[-----------15-15--13----]
[---------------------14-]
[------------------------]
[------------------------]
[------------------------]


A Great Fleetwood Mac Track. Enjoy...............
Добавлено: 02.10.2013
Другие материалы по этой песне:
  • Аккорды и текст

Страница создана 19.06.2012
http://primanota.ru/fleetwood-mac/rollin-man-chords.htm
Привет, Гость.
Предлагаем пройти революционный курс по гитаре.
Подарок от PrimaNota.Ru, забирай!