PrimaNota.ru - самый крупный в мире бесплатный архив песенных текстов, аккордов, табулатур и нот


Fleetwood Mac - Eyes Of The World - текст песни, таба, видео

Регистрация Запомнить меня
Войти через:  Facebook Google Twitter Vk Yandex Mail.ru

Fleetwood Mac - Eyes Of The World - текст песни, таба, видео

Печатать
Просмотров: 209
Уроки эстрадного вокала в Санкт-Петербурге
Авторы музыки: Lindsey Buckingham
Авторы текста: Lindsey Buckingham
Artist: Fleetwood Mac
Song: Eyes Of The World
Album: Mirage
Tuning: Standard
Capo: 6

------0-----0-----0-0------0-0-------2-2------2-2----|
-----0-----0-----2---2----2---2-----4---4----4---4---|
----1-----1-----2-----2--2-----2---4-----4--4-----4--|
---2-----2-----2--------2---------4--------4---------|
--2-----2-----0--------0---------2--------2----------|
-0-----0---------------------------------------------|

------0-0-------0-0----|
-----0---0-----0---0---|
----1-----1---1-----1--|
---2---------2---------|
--2---------2----------|
-0---------0-----------|

------0-----0-----0-0------0-0-------2-2------2-2----|
-----0-----0-----2---2----2---2-----4---4----4---4---|
----1-----1-----2-----2--2-----2---4-----4--4-----4--|
---2-----2-----2--------2---------4--------4---------|
--2-----2-----0--------0---------2--------2----------|
-0-----0---------------------------------------------|

------0-0-------0-0----|
-----0---0-----0---0---|
----1-----1---1-----1--|
---2---------2---------|
--2---------2----------|
-0---------0-----------|

            E                  A              B     E
Verse: I'm telling you people, tell you know lies,
        E                     A              B     E
       My heart was breaking, I'll tell you why.
       E               A       B     E
       Back and forth, lies unfurl,
              E                      A           B       E
       In the eyes, in eyes, in the eyes of the world.

        E     A     B     E
Chorus: Eyes, Eyes, Eyes, Eyes.
        E     A     B     E
        Eyes, Eyes, Eyes, Eyes.

        E                     A           B      E
Verse: Monday's children are filled with face,
        E                     A            B     E
       Tuesday's children are filled with grace.
       E               A       B     E
       Back and forth, lies unfurl,
              E                      A           B       E
       In the eyes, in eyes, in the eyes of the world.

        E     A     B     E
Chorus: Eyes, Eyes, Eyes, Eyes.
        E     A     B     E
        Eyes, Eyes, Eyes, Eyes.
Добавлено: 30.06.2012
Другие материалы по этой песне:
  • Аккорды и текст

Страница создана 02.03.2012
http://primanota.ru/fleetwood-mac/eyes-of-the-world-chords.htm
Привет, Гость.
Предлагаем пройти революционный курс по гитаре.
Подарок от PrimaNota.Ru, забирай!