PrimaNota.ru - самый крупный в мире бесплатный архив песенных текстов, аккордов, табулатур и нот


Fleetwood Mac - Down Endless Street - аккорды и текст, видео

Регистрация Запомнить меня
Войти через:  Facebook Google Twitter Vk Yandex Mail.ru

Fleetwood Mac - Down Endless Street - аккорды и текст, видео

Печатать
Просмотров: 104
Down Endless Street
Fleetwood Mac
---------------------------------------------------------------------------
            Down Endless Street - Fleetwood Mac
---------------------------------------------------------------------------
Tabbed by: maguri
Tuning: Standard

Fleetwood Mac 
Down Endless Street (1987)
(Buckingham)

B-Side of single "Family Man" 

---------------------------------------------------------------------------

INTRO / VERSE / CHORUS
  D       Dsus2    D       Dsus2    G       G7M      A
  1 + 2 + 3 + 4 +  1 + 2 + 3 + 4 +  1 + 2 + 3 + 4 +  1 + 2 + 3 + 4 +
e|2-2-2-2---0---2-|2-2-2-2---0-----|----------2---0-|0-0-0-0---0--(2)|
B|3-3-3-3---3---3-|3-3-3-3---3---3-|3-3-3-3---3---3-|2-2-2-2---2--(3)|
G|2-2-2-2---2---2-|2-2-2-2---2---0-|0-0-0-0---0-----|2-2-2-2---2--(2)|
D|0---------------|0---------------|0---------------|2-2-2-2---2-----|
A|----------------|----------------|----------------|0---------------|
E|----------------|----------------|3---------------|----------------|

---------------------------------------------------------------------------

INTRO
| D | D | G | A |
| D | D | G | A |


VERSE
D                           G
   Well you say you'll be fine
         A                 | D | D | G | A |
When you walk out that door
D                       G
   Oh will it be that easy
   A             | D | D | G | A |
To see me no more?


BRIDGE
Bm       F#m     
   Well, will you be fine?
Bm  F#m 
    Are you complete?
Bm  F#m          | G | %   A|
    Say you'll survive


CHORUS
D                    G   A
 Down Endless Street,    Down Endless Street
D                     G   A
(Down Endless Street)
D                    G   A
 Down Endless Street,    Down Endless Street
D                     G   A
(Down Endless Street)


VERSE
D                           G
   Well you say you'll be fine
         A                 | D | D | G | A |
When you walk out that door
D                       G
   Oh will it be that easy
   A             | D | D | G | A |
To see me no more?


BRIDGE
Bm  F#m     
    Will you survive?
Bm  F#m 
    Are you complete?
Bm  F#m            | G | %   A|
    Say you'll be fine


CHORUS
D                    G   A
 Down Endless Street,    Down Endless Street
D                     G   A
 (Down Endless Street)
D                    G   A
 Down Endless Street,    Down Endless Street
D                     G   A
 (Down Endless Street)


BRIDGE
Bm       F#m     
   Well, will you be fine?
Bm  F#m 
    Are you complete?
Bm  F#m          | G | %   A|
    Say you'll survive


CHORUS
D                    G   A
 Down Endless Street,    Down Endless Street
D                     G   A
(Down Endless Street)
D                    G   A
 Down Endless Street,    Down Endless Street
D                     G   A
(Down Endless Street)

(repeat and fade)
Добавлено: 10.05.2015
Другие материалы по этой песне:
  • Аккорды и текст

Страница создана 28.07.2012
http://primanota.ru/fleetwood-mac/down-endless-street-chords.htm
Привет, Гость.
Предлагаем пройти революционный курс по гитаре.
Подарок от PrimaNota.Ru, забирай!