PrimaNota.ru - самый крупный в мире бесплатный архив песенных текстов, аккордов, табулатур и нот


Fleetwood Mac - Black Magic Woman Live - таба, видео

Регистрация Запомнить меня
Войти через:  Facebook Google Twitter Vk Yandex Mail.ru

Fleetwood Mac - Black Magic Woman Live - таба, видео

Печатать
Просмотров: 105
-----------------------------------------------------------------
                 Black Magic Woman-Fleetwood Mac
-----------------------------------------------------------------

Tabbed By : Aeonoptic
e-mail: aeonoptic@gmail.com

Tuning: Standard

E|13~~~|~~~~|
B|15~~~|~~~~|
G|14~~~|~~~~|
D|-----|----|
A|-----|----|
E|-----|----|

Dm7
Got a black magic woman
                        Am7
  I got a black magic woman
E|------------------------------------------------|
B|------------------------------------------------|
G|------------------------------------------------|
D|-------------------------------10h12------------|
A|-------------------------10h12-------10/12------|
E|------------------------------------------------|

       Dm7
  Yes, I got a black magic woman
                 Gm7
  Got me so blind I can't see
E|----------------------------------------------|
B|---------------------------------13-----------|
G|---------------------------12b14----12pbr14---|
D|----------------------------------------------|
A|----------------------------------------------|
E|----------------------------------------------|
      Dm7                 C7
That she's a black magic woman
         Bb7               A7           Dm7
And she's tryin' to make a devil out of me
E|---------------------------------------------------------------|
B|-------------------------------------------------13------------|
G|----------------------------------------10/12b14----12pbr14p10-|
D|---------------------------------------------------------------|
A|---------------------------------------------------------------|
E|---------------------------------------------------------------|

E|------------------17~~|
B|------------------18~~|
G|------------------19~~|
D|12-10-----------------|
A|------10--------------|
E|---------13-10--------|

  Dm7 
  Don't turn your back on me baby
                      Am7
  Don't turn your back on me baby
E|--------------------------------------------|
B|--------------------------------13p10----10-|
G|--------------------------------------12----|
D|--------------------------------------------|
A|--------------------------------------------|
E|--------------------------------------------|
                 Dm7
  Don't turn your back on me baby
                                  Gm7
  You're messin' around with your tricks
E|------------------------------------------------------|
B|---------------------------------------13p10----------|
G|---------------------------------------------12br14~~-|
D|------------------------------------------------------|
A|------------------------------------------------------|
E|------------------------------------------------------|
            Dm7        C7
  Turn your back on me baby
            Bb7              A7           Dm7
 'Cause you might just break up my magic stick
E|------------------------------------------------------------------------------------|
B|--------------------------------------------------------13--------------------------|
G|--------------------------------------------12p10-12b14----12pbr14p10---------------|
D|----------------------------------------------------------------------12-10---------|
A|----------------------------------------------------------------------------12------|
E|-------------------------------------------------------------------------------13-10|
 
Solo:
  Ahhhh
E|-----10----10----------------10~|-----13b15-13-10-------------------------------|
B|--------10----10-13-10-13b15----|-----------------13-----------------13---------|
G|--------------------------------|--------------------12br14p10-12b14----12b14~~-|
D|--------------------------------|-----------------------------------------------|
A|--------------------------------|-----------------------------------------------|
E|--------------------------------|-----------------------------------------------|

 
E|15b17~~-15-13-------------------|---------------------------------------x|
B|--------------15-14-13--15br17--|13-------------------------------10-13--|
G|--------------------------------|---14-13-12\10-----12-10-12br14---------|
D|--------------------------------|---------------12-----------------------|
A|--------------------------------|----------------------------------------|
E|--------------------------------|----------------------------------------|

 
E|13b15-13--10------------------|-----------10----------10-----------------------10|
B|-------------10---------------|--------10----13b15~~-----10-----------------10---|
G|----------------12b14~~--10-12|-12b14-----------------------12br14p10-12b14------|
D|------------------------------|--------------------------------------------------|
A|------------------------------|--------------------------------------------------|
E|------------------------------|--------------------------------------------------|

 
E|10----------------------------|10p8-----------------|
B|---10-------------------------|-----10-8\6----------|
G|------12-12pbr14-10-----------|------------7--------|
D|--------------------12--------|--------------7------|
A|------------------------------|----------------8-5--|
E|------------------------------|---------------------|

  AAAAhhh
E|-------13b15-13-10----------|---10-13-12-10----------------------------|
B|-------------------13b15~~--|10-------------10-------------------------|
G|----------------------------|------------------12-10----10-12-12b14-14~|
D|----------------------------|------------------------12----------------|
A|----------------------------|------------------------------------------|
E|----------------------------|------------------------------------------|

 
E|-------13p10----10----------|-10----------------------------|
B|13b15--------13----10-------|----10-------------------------|
G|----------------------12b14~|-------13-12p10----------10----|
D|----------------------------|----------------12-10h12----12~|
A|----------------------------|-------------------------------|
E|----------------------------|-------------------------------|

 
E|-----------------------------------------------------|
B|--------------------------------------------------10-|
G|------------------------------10--12br14-10h12-10----|
D|10-------------------------10------------------------|
A|---12-11-10-8----10--10h12---------------------------|
E|--------------10-------------------------------------|

 
E|15b17-15pb17-13h15-13-13-------------------------------------|
B|-------------------------15----13/15-13----------------------|
G|----------------------------14----------14-12-12p10----10----|
D|----------------------------------------------------12----12-|
A|-------------------------------------------------------------|
E|-------------------------------------------------------------|

 
E|---------------10-8-------------------17-|
B|--------------------8br10-6-----------18-|
G|10----10--------------------7---------19-|
D|---12----12~~-----------------7----------|
A|--------------------------------8-5~-----|
E|-----------------------------------------|

Dm7
You got your spell on me baby
 
E|------------|
B|------------|
G|------------|
D|---10-10-12-|
A|12----------|
E|------------|

                              Am7
You got your your spell on me baby yeah
 
E|-------------------|
B|-------------------|
G|-------------------|
D|------10h12--------|
A|10h12-------10h12~-|
E|-------------------|

Dm7
Yes, you got your spell on me baby
                             Gm7
You're turning my heart into stone
 
E|13b15-13~-10--------|
B|-------------10-----|
G|----------------12~-|
D|--------------------|
A|--------------------|
E|--------------------|

Dm7           C7        Bb7
I need you so bad magic woman
A7                Dm7
I can't leave you alone
 
E|----------------------------|
B|10h13-----------------------|
G|------12br14-10-------------|
D|----------------12----------|
A|-------------------12-------|
E|----------------------13-10~|

 Enters shuffle rhythm

Note past this point there's no mid-tab bar lines.

Rhythm guitar plays until both start soloing:
  Dm7
E|------------5-|
B|------------6-|
G|--7---7-----5-|
D|------------7-|
A|5---5---5-5---|
E|--------------|

Dm7
Yes, I need you so bad
E|----------------------------------|
B|----------------------------------|
G|---------------------12br14p10-12-|
D|----------------------------------|
A|----------------------------------|
E|----------------------------------|


I need you darling 
E|-----------------------10|
B|-----------------13b15---|
G|-------------------------|
D|-------------------------|
A|-------------------------|
E|-------------------------|

Yes, I need you darling 
E|-----------------------------10-------------|
B|--------------------------------10----------|
G|----------------------12b14~-------12-10----|
D|-----------------------------------------12-|
A|--------------------------------------------|
E|--------------------------------------------|

I want you to love me!

            I want you to love me!            I want you to love me!
E|13b15-13~------------------------13b15-13-10---------------------|
B|-----------------------------------------------------------------|
G|-----------------------------------------------------------------|
D|-----------------------------------------------------------------|
A|-----------------------------------------------------------------|
E|-----------------------------------------------------------------|


           Oh yeah!                  oh yeah!
E|------10------------------10----------------13b15-13-10-------10-|
B|13b15------------------10----13b15----------------------10-13----|
G|-----------------12b14-------------------------------------------|
D|-----------------------------------------------------------------|
A|-----------------------------------------------------------------|
E|-----------------------------------------------------------------|

  I want you to love me!                   Oh yeah!
E|----------------------10-10-----------13----------15b17-15-13----|
B|----------------------------13br15b15-------------------------15~|
G|-----------------------------------------------------------------|
D|-----------------------------------------------------------------|
A|-----------------------------------------------------------------|
E|-----------------------------------------------------------------|

I want you to love me yeah            wooah yeah
E|----------------------------10----------------------------|
B|-------------------------13----13-10\----------13-10------|
G|-----------------------------------------------------12-10|
D|----------------------------------------------------------|
A|----------------------------------------------------------|
E|----------------------------------------------------------|

I need your love so bad

E|----------------------------------------------------------------|
B|13-10----------------13-10--------------------------------------|
G|------12-12p10-------------12-10-12--12p10----10----------------|
D|---------------12~-------------------------12-----------10-10-12|
A|--------------------------------------------------10h12---------|
E|----------------------------------------------------------------|

Guitar 1
E|------------------------------------------------------------------|
B|------------------------------------------------------------------|
G|-----------------------------------------------------10h12p10-----|
D|------10-10-12--------10-10-12--------10-10-12----------------12--|
A|10h12-----------10h12-----------10h12----------10h12--------------|
E|------------------------------------------------------------------|

Guitar 2
E|------------------------------------------------------------------|
B|------------------------------------------------------------10-10~|
G|------------------------------------------------------------10-10~|
D|------------------------------------------------------------------|
A|------------------------------------------------------------------|
E|------------------------------------------------------------------|

Guitar 1
E|-----------------------------------------------------------------------|
B|-----------------------------------------------------------------------|
G|-----------------------------------------------------------------------|
D|------10-10-12-12-------10-10-12-12-------10-10-12-12-------10-10-10-12|
A|10h12-------------10h12-------------10h12-------------10h12------------|
E|-----------------------------------------------------------------------|
                                   
Guitar 2                          
E|-------------------------------------------------------------10-------------------|
B|-----------10-10~-------------10-10~------------13-15-13b15-----13-10-------------|
G|-----------10-10~-------------10-10~------12h14-----------------------12b14-12b14-|
D|----------------------------------------------------------------------------------|
A|----------------------------------------------------------------------------------|
E|----------------------------------------------------------------------------------|

Guitar 1
E|-----------------------------------------------------------------------------|
B|-----------------------------------------------------------------------------|
G|-----------------------------------------------------------------------------|
D|------10-10-12-12--------10-10-12-12--------10-10-12-12~----------10h12-12-12|
A|10h12--------------10h12--------------10h12--------------10h12-12------------|
E|-----------------------------------------------------------------------------|

Guitar 2
E|------------------------------10---------------------------------------------|
B|---------------------------10----13b15--13p10--------------------------------|
G|12b14-12b14-12b14-12b14-12--------------------12b14-12b14-12b14-12b14-12b14~-|
D|-----------------------------------------------------------------------------|
A|-----------------------------------------------------------------------------|
E|-----------------------------------------------------------------------------|

Guitar 1
E|------------------10-------------------------------------------------|
B|---------------10-------13-10----------------------------------------|
G|------10-12b14----------------13-12-10-------------------------------|
D|10h12----------------------------------12-10-------------------------|
A|---------------------------------------------12-10-------------------|
E|---------------------------------------------------13-10-------------|

Guitar 2
E|---10----10~--------------------------------------------10----------|
B|13----13------13-10----------------------------------13----13-13b15~|
G|--------------------12-12b14-12b14-12b14-12b14-12b14----------------|
D|--------------------------------------------------------------------|
A|--------------------------------------------------------------------|
E|--------------------------------------------------------------------|

Guitar 1
E|--------------------------------------------------------------------------------|
B|----------------------------13-10----10-13~----------------------13-10----10-13~|
G|----------------------------------12-----------------------------------12-------|
D|------------------------10~-----------------------------------------------------|
A|------10-11-12-10-10h12---------------------------------------------------------|
E|10-13---------------------------------------------------------------------------|

Guitar 2
E|10------------------------------------------10--10------------------------------|
B|---13-10---------------------------13-13-13--------13-10------------------------|
G|---------12b14-12b14-12b14--12b14~-----------------------12b14-12b14-12b14-12b14|
D|--------------------------------------------------------------------------------|
A|--------------------------------------------------------------------------------|
E|--------------------------------------------------------------------------------|

Guitar
E|---------------------------------------------------------------------------------------|
B|13-10----10-13~--13-10----10-13b15~-13-10----------------10-13--13-10------------------|
G|------12---------------12-----------------13-12-10----12--------------13-12-10-12-10---|
D|---------------------------------------------------12--------------------------------10|
A|---------------------------------------------------------------------------------------|
E|---------------------------------------------------------------------------------------|

E|-------------------------------------------------------------|
B|----------------------------------------------------------10-|
G|----------------------------------------------------10-12----|
D|---10h12-10----------------10--------10-10h12-10-12----------|
A|12----------12-10----10h12-----10h12-------------------------|
E|------------------13-----------------------------------------|

Guitar 2
E|---10----10~--10-13b15~-13----------13b15-13-13b15-13-10----10-------------------------|
B|13----13-------------------15-13/15----------------------13----13b15-13b15-13b15-13b15~|
G|---------------------------------------------------------------------------------------|
D|---------------------------------------------------------------------------------------|
A|---------------------------------------------------------------------------------------|
E|---------------------------------------------------------------------------------------|

Guitar 1
E|-----------------------------------------------------------------------------------------------|
B|------------------------------------------------------------------------------------------10-13|
G|12b14-12pbr14p10-12~-----------------------12-12-12-10-------10b--------12-12-12-10-12-10------|
D|-------------------------------------------------------10-12-----------------------------------|
A|-----------------------------------------------------------------------------------------------|
E|-----------------------------------------------------------------------------------------------|


Guitar 2
E|---------------------------------------------------------------------------------------------|
B|13-10----------------------------------------------------------------------------------------|
G|------12br14p10-12-10-12-10--12-10-12b14-12b14-12p10----10-12--------------------------------|
D|-----------------------------------------------------12---------12-12-12-12-12-12-12-10h11h12|
A|---------------------------------------------------------------------------------------------|
E|---------------------------------------------------------------------------------------------|

Guitar 1
E|-------------------------------------------------------------------------------|
B|-------13-10-------------------------------------------------------------------|
G|-------------13-12-10----10----------------------------------------------------|
D|----------------------12----12-10----------------------------------------------|
A|----------------------------------12-11-10--------------------5-7-8-7-5-8-7-5--|
E|-------------------------------------------13-10------------5------------------|

Guitar 2
E|-------------------------------------------------------------------------------|
B|----------------------------------------------------------------------10-13b15~|
G|------------------------------------------------------------10~-12-10----------|
D|12-12-12-12-12-12-12-12-12-12-10h11h12-10h11h12-12-12-12-12--------------------|
A|-------------------------------------------------------------------------------|
E|-------------------------------------------------------------------------------|

Guitar 1
E|---------------------------------10-13---------10--------------------13-12-12-12-10|
B|---------------------------10-13-------13b15~-----13-10----------10----------------|
G|---------------------10-12------------------------------12-10-12-------------------|
D|--7---7/10~-10-12-12---------------------------------------------------------------|
A|5---5------------------------------------------------------------------------------|
E|-----------------------------------------------------------------------------------|

E|----------------------------------------10-|
B|10-10--10----------------------------10----|
G|----------13-12-10-------12-10----10-------|
D|-------------------12-10-------12----------|
A|-------------------------------------------|
E|-------------------------------------------|


Guitar 2
E|---10h13p10-------13-10h13p10----10-10-13p10----10--10-13p10--13b15~--15b17~|
B|13----------13b15-------------13-------------13-----------------------------|
G|----------------------------------------------------------------------------|
D|----------------------------------------------------------------------------|
A|----------------------------------------------------------------------------|
E|----------------------------------------------------------------------------|

Guitar 1
E|--------------------------------------10-----------13--------13h15-------13--------|
B|13b15-10-13--10-13-----------------10----13--13-15-----13-15--------13-15---15--13-|
G|-------------------12br14p10-12b14-------------------------------------------------|
D|-----------------------------------------------------------------------------------|
A|-----------------------------------------------------------------------------------|
E|-----------------------------------------------------------------------------------|

E|---13-15b17-15b17-13--15b17|
B|15-------------------------|
G|---------------------------|
D|---------------------------|
A|---------------------------|
E|---------------------------|

Guitar 2
E|15b17-15b17-15-13-----------13--15b17-15-13~~--------------------------------------|
B|------------------15-15--15-------------------15--13-10-10-/13-13-13-13-13-13------|
G|-----------------------------------------------------------/14-14-14-14-14-14-12-10|
D|-----------------------------------------------------------------------------------|
A|-----------------------------------------------------------------------------------|
E|-----------------------------------------------------------------------------------|

Guitar 1
E|15-17-15-13---------------------------------------------10--------------------|
B|------------15-13h15-15b18-15~--13h15-13-------------10----10-----------------|
G|-----------------------------------------14-10----10----------12b14-12pbr14-10|
D|-----------------------------------------------12-----------------------------|
A|------------------------------------------------------------------------------|
E|------------------------------------------------------------------------------|

E|------------------------------------10|
B|13------------13--------------10h13---|
G|---12br14p10-----12br14p10h12---------|
D|--------------------------------------|
A|--------------------------------------|
E|--------------------------------------|

Guitar 2
E|-------------------------------------------------------------------|
B|13-----------------------------------------------------------------|
G|----10---------10----------------10b--------10b--------10b12-10p9-7|
D|-----------12~-----12-12~--12-12------12-12------12-12-------------|
A|-------12----------------------------------------------------------|
E|-------------------------------------------------------------------|

Guitar 1
E|------10--------10--------13-10-----------10-----------------------|
B|10h13----10h13b-----13b15-------10--13b15-----13-10----10----------|
G|----------------------------------------------------12----12p10----|
D|----------------------------------------------------------------12-|
A|-------------------------------------------------------------------|
E|-------------------------------------------------------------------|

Guitar 2
E|---------------------------------------------------------------------------------|
B|---------------------------------------------------------------------------------|
G|10b12-10-7--10b12-7-7--12b14-12-10------12b14-12b14~~--12b14-10-------10br12p9---|
D|-----------------------------------12~--------------------------12-12----------12|
A|---------------------------------------------------------------------------------|
E|---------------------------------------------------------------------------------|

Guitar 1
E|--------------------------------------------10-----------------------------10|
B|13p10-----13p10----13-10----13-10-----13-10-----13p10----13p10-----13b15~~---|
G|------12--------12-------12-------12------------------12-------12------------|
D|-----------------------------------------------------------------------------|
A|-----------------------------------------------------------------------------|
E|-----------------------------------------------------------------------------|

Guitar 2
E|-------------|
B|-------------|
G|10br12p7-----|
D|---------7~~~|
A|-------------|
E|-------------|
(resumes playing rhythm)


E|---------------10-10------10-------10--------10-------10--10-------13b15|
B|13-10-------10-------13~-----13-10----13-10-----13-10--------13-10------|
G|------12-10-------------------------------------------------------------|
D|------------------------------------------------------------------------|
A|------------------------------------------------------------------------|
E|------------------------------------------------------------------------|


E|15-13-12-10----10-12br13p10-----10-----------------10-------10--------10|
B|------------13--------------13-----10-----------10----13b15-----13b15---|
G|--------------------------------------12br14p10-------------------------|
D|------------------------------------------------------------------------|
A|------------------------------------------------------------------------|
E|------------------------------------------------------------------------|

 
E|---10----10------13b15-13-10----10--------------------------10----|
B|13----13----13~--------------13----13-10-----------------10----13~|
G|-----------------------------------------12br14p10-12b14----------|
D|------------------------------------------------------------------|
A|------------------------------------------------------------------|
E|------------------------------------------------------------------|
 
E|-----------------------------------------------------------10--------10------|
B|13-10---------------------------------------------------10-----13b15----13-10|
G|------13-12-10------------------------------10----12b14----------------------|
D|---------------12p10------------------10-12----12----------------------------|
A|---------------------12p10\8----10/12----------------------------------------|
E|-----------------------------10----------------------------------------------|
 
E|----------10--15b17~~-13----13-15b17-15b17~--15br17p13----13--------13-15|
B|13-13pb15----------------15----------------------------15----15----------|
G|----------------------------------------------------------------14-------|
D|-------------------------------------------------------------------------|
A|-------------------------------------------------------------------------|
E|-------------------------------------------------------------------------|

E|15pb17-15-13-15--15-17-15-13-----------13-----------------13------------------------10|
B|------------------------------13h15-15----15-13--13h15-15----15------------------10---|
G|-----------------------------------------------------------------12br14p10-12b14------|
D|--------------------------------------------------------------------------------------|
A|--------------------------------------------------------------------------------------|
E|--------------------------------------------------------------------------------------|


 
E|-----------------------------10---------------------------10----------10------------|
B|-------------------10--13b15-----13-10----10-13~-10----10----10----10----10----10-13|
G|12br14p10----10h12---------------------12-----------12----------12----------12------|
D|----------12------------------------------------------------------------------------|
A|------------------------------------------------------------------------------------|
E|------------------------------------------------------------------------------------|

E|------------------------------------10------------------------------------------|
B|13-10----------------------------10------13-10-----------13-10------------------|
G|------12-10----------10----10-12---------------12-10-----------12-10-12b14-12b14|
D|------------12-10-12----12---------------------------12-------------------------|
A|--------------------------------------------------------------------------------|
E|--------------------------------------------------------------------------------|

 
E|10-------10----------10-----------10h13--10-------13-------13-12-------------|
B|---10-13----10-10-10-----10-10-10-----------13-10----13-15-------15----------|
G|---------------------------------------------------------------------12-10-12|
D|-----------------------------------------------------------------------------|
A|-----------------------------------------------------------------------------|
E|-----------------------------------------------------------------------------|
 
E|-------------------------------------------------------------------------------------|
B|------10-10--------------------------------------------------------------------------|
G|10-12-------12p10--------10----10-12-10-12b14---------10-10------------10h12p10-12b14|
D|------------------12--12----12------------------10-12-------12~--10h12---------------|
A|-------------------------------------------------------------------------------------|
E|-------------------------------------------------------------------------------------|
 
E|-----------------------------------------------10--15-13---------------------------|
B|---------------------------------------13b15~~-----------15-13---------------------|
G|------10-10------------10h12p10-12/14--------------------------14-12b13-12-10------|
D|10h12-------12~--10h12--------------------------------------------------------12-10|
A|-----------------------------------------------------------------------------------|
E|-----------------------------------------------------------------------------------|

 
E|---------------------------------------------------------------------------------------|
B|------------------------------------------------------------------------------13-------|
G|------------------------------------------------------------10----------12b14----12pb14|
D|------------------------------------------10-10-10-10-10-12----10-10h12----------------|
A|12-10-------------------8----10br11-8--------------------------------------------------|
E|------13-12-10-10--8-10---10----------10-----------------------------------------------|

E|--------------------------------------------------------------------|
B|------13---------------13----------------13---------------13b15~~~~~|
G|12b14----12pb14--12b14----12pb14---12b14----12pbr14p10--------------|
D|-------------------------------------------------------12-----------|
A|--------------------------------------------------------------------|
E|--------------------------------------------------------------------|


| /  slide up
| \  slide down
| h  hammer-on
| p  pull-off
| ~  vibrato
| +  harmonic
| x  Mute note
Добавлено: 20.09.2015
Другие материалы по этой песне:
  • Аккорды и текст

Страница создана 20.09.2015
http://primanota.ru/fleetwood-mac/black-magic-woman-live-chords.htm
Привет, Гость.
Предлагаем пройти революционный курс по гитаре.
Подарок от PrimaNota.Ru, забирай!