PrimaNota.ru - самый крупный в мире бесплатный архив песенных текстов, аккордов, табулатур и нот


Fleetwood Mac - Before The Beginning - текст песни, таба, видео

Регистрация Запомнить меня
Войти через:  Facebook Google Twitter Vk Yandex Mail.ru

Fleetwood Mac - Before The Beginning - текст песни, таба, видео

Печатать
Просмотров: 151
Авторы музыки: Peter Green
Авторы текста: Peter Green
-------------------------------------------------------------------------------
                     Before the Beginning - Fleetwood Mac
-------------------------------------------------------------------------------
Tabbed by: Aeonoptic
E-mail: aeonoptic@gmail.com

Tuning: E Standard

  Intro
e|6-----------|--------------|------------6-|
B|9-9-8-6-----|8-------------|------------6-|
G|--------6-8~|8-6h8p6-5-3-6-|6-8-5-------6-|
D|------------|--------------|------8-6---8-|
A|------------|--------------|----------8---|
E|------------|--------------|--------------|

  Verse Riff:
e|-----------------|
B|-----------------|
G|-----------------|
D|----6-6h8--------|
A|6h8-------6-6h8--|
E|----------------6|
  
  Before Verse:
e|-----------|6/9~-11-13-9~|
B|6/9~-9/11~-|-------------|
G|-----------|-------------|
D|-----------|-------------|
A|-----------|-------------|
E|-----------|-------------|

(Strumming)
Bbmin
So many nights I lay awake
Can't sleep
Ebmin                       Fmin
I lay here thinkin' 'bout a woman
Bbmin
I used to love
Can't sleep but no good to count sheep
Ebmin               Fmin
I'll just count the worries
Bbmin
That I've got plenty of

e|--------|
B|--------|
G|8b10~~~~|
D|--------|
A|--------|
E|--------|

(Staccato)
Bbmin
And how many times
Must I be the fool
Before I can make it
               Ebmin Fmin
Oh, make it on home
Bbmin
I've got to find a place to sing my words
                                 Ebmin
Is there nobody listening to my song?

  Solo:
e|16~~~~|-18br20-16-18-18br20~|----------------|13~----|---------|---------------------|
B|------|---------------------|----------------|14~----|11-14b16~|14br16-11----11h14p11|
G|------|---------------------|----------------|15~----|---------|----------13---------|
D|------|---------------------|----------------|-------|---------|---------------------|
A|------|---------------------|--4-6---6/8-----|-------|---------|---------------------|
E|------|---------------------|/6----6-----6-6-|-------|---------|---------------------|

e|---------|------------|9-11b13-11-9-11br13-|11b13-9---------|---11br13-9-9----|
B|---------|------------|--------------------|--------11-9-11-|11------------11-|
G|---------|------------|--------------------|----------------|-----------------|
D|6--------|------------|--------------------|----------------|-----------------|
A|--6/8\6~-|4-6-6/8-----|--------------------|----------------|-----------------|
E|---------|--------6-6-|--------------------|----------------|-----------------|

e|-------------|--6----8--|16-13\11-11\9-|11b13-11pbr13p9---------|----6----------|
B|11-9---------|--6----8--|--------------|----------------11-9-11-|6-9---9-6------|
G|-----10-10\8-|--8----10-|--------------|------------------------|----------8br10|
D|-------------|--8----10-|--------------|------------------------|---------------|
A|-------------|6----8----|--------------|------------------------|---------------|
E|-------------|----------|--------------|------------------------|---------------|

Bbmin
You talk about a life
Been searching for the key
Ebmin             Fmin
But can't find an answer
Bbmin
To comfort me

e|---------|----------|
B|---------|----------|
G|8b10-8b10|-6b8-6br8~|
D|---------|----------|
A|---------|----------|
E|---------|----------|

Bbmin
I ask myself about love
Can't even find the door
Ebmin           Fmin
To take me to a place
Bbmin
I've never seen before

Bbmin
And how many times
Must I be the fool
Before I can make it
               Ebmin Fmin
Oh, make it on home
Bbmin
I've got to find a place to sing my words
                                 Ebmin (hold)
Is there nobody listening to my song?
  
e|6-----------|--------------|------------6-|
B|9-9-8-6-----|8-------------|------------6-|
G|--------6-8~|8-6h8p6-5-3-6-|6-8-5-------6-|
D|------------|--------------|------8-6---8-|
A|------------|--------------|----------8---|
E|------------|--------------|--------------|
  
  Bbmin (fade as verse riff plays)
         repeats
         v v v
e|18----|-------|13-11-------|6-------6-|18pbr20~~|
B|------|6------|------14-11-|--6-7-9---|---------|
G|------|--6----|------------|----------|---------|
D|------|----8~-|------------|----------|---------|
A|------|-------|------------|----------|---------|
E|------|-------|------------|----------|---------|


************************************

| /   slide up
| \   slide down
| h   hammer-on
| p   pull-off
| ~   vibrato
| +   harmonic
| x   Mute note
| b   Bend
| pb  Pre-bend
| br  Bend release
| pbr Pre-bend release
| brb Bend release bend

************************************
Добавлено: 10.05.2015
Другие материалы по этой песне:
  • Аккорды и текст

Страница создана 11.06.2012
http://primanota.ru/fleetwood-mac/before-the-beginning-chords.htm
Привет, Гость.
Предлагаем пройти революционный курс по гитаре.
Подарок от PrimaNota.Ru, забирай!