PrimaNota.ru - самый крупный в мире бесплатный архив песенных текстов, аккордов, табулатур и нот


Fleet Foxes - Heard Them Stirring - таба, видео

Регистрация Запомнить меня
Войти через:  Facebook Google Twitter Vk Yandex Mail.ru

Fleet Foxes - Heard Them Stirring - таба, видео

Печатать
Просмотров: 107
-------------------------------------------------------------------------------
           	 "HEARD THEM STIRRING" off album "Fleet Foxes"(2008)
-------------------------------------------------------------------------------
Tabbed by: Les Gibson

Tuning: Standard

There are two guitar parts in this song, and often they are buried beneath
the deep vocal harmonies, and so are hard to make out. Ive tried my best
to tab them as accurately as possible...

I'll divide it into sections to make it easier to follow.

------------------------------------------------------------------------------
                                SECTION 1 (0:05)
------------------------------------------------------------------------------

   Em              Bm                  Em              Bm
e|-----------------------------------|-----------------------------------|
B|------8-------8-------7-------7----|------8-------8-------7-------7----|
G|----9---9---9---9---7---7---7---7--|----9---9---9---9---7---7---7---7--|
D|--9-------9-------9-------9--------|--9-------9-------9-------9--------|
A|-----------------------------------|-----------------------------------|
E|-----------------------------------|-----------------------------------|


   Em              D6                   Em              B  
e|----------------------7-------7----|------7-------7-------7-------7----|
B|------8-------8-----7---7---7---7--|----8---8---8---8---7---7---7---7--|
G|----9---9---9---9-7-------7--------|--9-------9-------8-------8--------|
D|--9-------9------------------------|-----------------------------------|
A|-----------------------------------|-----------------------------------|
E|-----------------------------------|-----------------------------------|


--Second guitar comes in:

   Em              Bm                  Em              Bm
e|-----------------------------------|-----------------------------------|
B|------8-------8-------7-------7----|------8-------8-------7-------7----|
G|----9---9---9---9---7---7---7---7--|----9---9---9---9---7---7---7---7--|
D|--9-------9-------9-------9--------|--9-------9-------9-------9--------|original 
A|-----------------------------------|-----------------------------------|
E|-----------------------------------|-----------------------------------|
 |                                   |                                   |
e|-----------------------------------|-----------------------------------|
B|------8-------8-------7-------7----|------8-------8-------7-------7----|
G|--9---9---9---9---7---7---7---7----|--9---9---9---9---7---7---7---7----|new
D|--9-------9-------9-------9--------|--9-------9-------9-------9--------|
A|----7---7---7---7-9-------9--------|----7---7---7---7-9-------9--------|
E|--------------------7---7---7---7--|--------------------7---7---7---7--|


   Em              D6                   Em              B  
e|----------------------7-------7----|------7-------7-------7-------7----|
B|------8-------8-----7---7---7---7--|----8---8---8---8---7---7---7---7--|
G|----9---9---9---9-7-------7--------|--9-------9-------8-------8--------|
D|--9-------9------------------------|-----------------------------------|
A|-----------------------------------|-----------------------------------|
E|-----------------------------------|-----------------------------------|
 |                                   |                                   |
e|--7-------7-------2-------2--------|-----------------------------------|
B|--8---8---8---8---3---3---3---3----|--8---------------7----------------|
G|------9-------9-------4-------4----|--9---------------8----------------|
D|-----------------------------------|--9---------------9----------------|
A|----7---7---7---7---0---0---0---0--|-----------------------------------|
E|-----------------------------------|------------------7----------------|


   Em              Bm                  Em              Bm
e|-----------------------------------|-----------------------------------|
B|------8-------8-------7-------7----|------8-------8-------7-------7----|
G|----9---9---9---9---7---7---7---7--|----9---9---9---9---7---7---7---7--|
D|--9-------9-------9-------9--------|--9-------9-------9-------9--------| 
A|-----------------------------------|-----------------------------------|
E|-----------------------------------|-----------------------------------|
 |                                   |                                   |
e|-----------------------------------|-----------------------------------|
B|------8-------8-------7-------7----|------8-------8-------7-------7----|
G|--9---9---9---9---7---7---7---7----|--9---9---9---9---7---7---7---7----|
D|--9-------9-------9-------9--------|--9-------9-------9-------9--------|
A|----7---7---7---7-9-------9--------|----7---7---7---7-9-------9--------|
E|--------------------7---7---7---7--|--------------------7---7---7---7--|


   Em              D6                   Em              B  
e|----------------------7-------7----|------7-------7-------7-------7----|
B|------8-------8-----7---7---7---7--|----8---8---8---8---7---7---7---7--|
G|----9---9---9---9-7-------7--------|--9-------9-------8-------8--------|
D|--9-------9------------------------|-----------------------------------|
A|-----------------------------------|-----------------------------------|
E|-----------------------------------|-----------------------------------|
 |                                   |                                   |
e|--7-------7-------2-------2--------|-----------------------------------|
B|--8---8---8---8---3---3---3---3----|--8---------------7----------------|
G|------9-------9-------4-------4----|--9---------------8----------------|
D|-----------------------------------|--9---------------9----------------|
A|----7---7---7---7---0---0---0---0--|-----------------------------------|
E|-----------------------------------|------------------7----------------|


------------------------------------------------------------------------------
                               SECTION 2 (0:57)
------------------------------------------------------------------------------

   D6                                  F#sus4           F#
e|------7-------7-------7-------7----|------7-------7-------6-------6----|
B|----7---7---7---7---7---7---7---7--|----7---7---7---7---7---7---7---7--|
G|--7-------7-------7-------7--------|--6-------6-------6-------6--------|
D|-----------------------------------|-----------------------------------|
A|-----------------------------------|-----------------------------------|
E|-----------------------------------|-----------------------------------|
 |                                   |                                   |
e|-----------------------------------|-----------------------------------|
B|--3-------3-------3-------3--------|--2-------2-------2-------2--------|
G|--4-------4-------4-------4--------|--3-------3-------3-------3--------|
D|--0-------0-------0-------0--------|-----------------------------------|
A|-----------------------------------|-----------------------------------|
E|-----------------------------------|--2-------2-------2-------2--------|


   Esus4                               E 
e|------5-------5-------5-------5----|------4-------4-------4-------4----|
B|----5---5---5---5---5---5---5---5--|----5---5---5---5---5---5---5---5--|
G|--4-------4-------4-------4--------|--4-------4-------4-------4--------|
D|-----------------------------------|-----------------------------------|
A|-----------------------------------|-----------------------------------|
E|-----------------------------------|-----------------------------------|
 |                                   |                                   |
e|-----------------------------------|-----------------------------------|
B|--0-------0-------0-------0--------|--0-------0-------0-------0--------|
G|-----------------------------------|-----------------------------------|
D|-----------------------------------|--2-------2-------2-------2--------|
A|--2-------2-------2-------2--------|-----------------------------------|
E|-----------------------------------|--0-------0-------0-------0--------|


   D6                                  F#sus4           F#
e|------7-------7-------7-------7----|------7-------7-------6-------6----|
B|----7---7---7---7---7---7---7---7--|----7---7---7---7---7---7---7---7--|
G|--7-------7-------7-------7--------|--6-------6-------6-------6--------|
D|-----------------------------------|-----------------------------------|
A|-----------------------------------|-----------------------------------|
E|-----------------------------------|-----------------------------------|
 |                                   |                                   |
e|-----------------------------------|-----------------------------------|
B|--3-------3-------3-------3--------|--2-------2-------2-------2--------|
G|--4-------4-------4-------4--------|--3-------3-------3-------3--------|
D|--0-------0-------0-------0--------|-----------------------------------|
A|-----------------------------------|-----------------------------------|
E|-----------------------------------|--2-------2-------2-------2--------|


   Esus4                               E 
e|------5-------5-------5-------5----|------4-------4-------4-------4----|
B|----5---5---5---5---5---5---5---5--|----5---5---5---5---5---5---5---5--|
G|--4-------4-------4-------4--------|--4-------4-------4-------4--------|
D|-----------------------------------|-----------------------------------|
A|-----------------------------------|-----------------------------------|
E|-----------------------------------|-----------------------------------|
 |                                   |                                   |
e|-----------------------------------|-----------------------------------|
B|--0-------0-------0-------0--------|--0-------0-------0-------0--------|
G|-----------------------------------|-----------------------------------|
D|-----------------------------------|--2-------2-------2-------2--------|
A|--2-------2-------2-------2--------|-----------------------------------|
E|-----------------------------------|--0-------0-------0-------0--------|


------------------------------------------------------------------------------
                               SECTION 3 (1:32)
------------------------------------------------------------------------------
--Acoustic guitar on its own:

   Bm              E6                  Bm              E6
e|-----------------------------------|-----------------------------------|
B|--3-------3-------2---2---0---0----|--3-------3-------2---0---0---0----|
G|--4---4---4---4---1---1---1---1----|--4---4---4---4---1---1---1---1----|
D|--4---4---4---4---2---2---2---2----|--4---4---4---4---2---2---2---2----|
A|----2---2---2---2------------------|----2---2---2---2------------------|
E|--------------------0---0---0---0--|--------------------0---0---0---0--|

                       strumming starts in background
   Bm              E6                 
e|-----------------------------------|
B|--3-------3-------2---2---0---0----|
G|--4---4---4---4---1---1---1---1----|
D|--4---4---4---4---2---2---2---2----|
A|----2---2---2---2------------------|
E|--------------------0---0---0---0--|


--Electric guitar comes in. Here, tabbed guitar is the electric guitar, the
  acoustic strums the chords.

   A                                  G
e|----------------------------------|------------------------------------|
B|--2---------------2---3---5---10--|--8-------------8-----7----5----3-0-|
G|--2---------------2---2---4---9---|--7-------------7---7----6----4-----| X2
D|----------------------------------|------------------------------------| 
A|----------------------------------|------------------------------------|
E|----------------------------------|------------------------------------|


   C                                  Bb
e|----------------------------------|------------------------------------|
B|--5---------------5---6---8---13--|--11-----------10-----8----6----5-3-|
G|--5---------------5---5---7---12--|--10-----------10---9----7----5---5-| 
D|----------------------------------|------------------------------------| 
A|----------------------------------|------------------------------------|
E|----------------------------------|------------------------------------|

These last two measures are repeated to the end of the fade out, with the
chords being strummed in the background.


Please rate/comment!
 

| /  slide up
| \  slide down
| h  hammer-on
| p  pull-off
| ~  vibrato
| +  harmonic
| x  Mute note
===============================================================================
Добавлено: 09.09.2013
Другие материалы по этой песне:
  • Аккорды и текст

Страница создана 09.09.2013
http://primanota.ru/fleet-foxes/heard-them-stirring-chords.htm
Привет, Гость.
Предлагаем пройти революционный курс по гитаре.
Подарок от PrimaNota.Ru, забирай!