PrimaNota.ru - самый крупный в мире бесплатный архив песенных текстов, аккордов, табулатур и нот


Fleet Foxes - English House - таба, бас-таба, видео

Регистрация Запомнить меня
Войти через:  Facebook Google Twitter Vk Yandex Mail.ru

Fleet Foxes - English House - таба, бас-таба, видео

Печатать
Просмотров: 73
-------------------------------------------------------------------------------
	                    "ENGLISH HOUSE" - off EP "Sun Giant" (2008)
-------------------------------------------------------------------------------
This band is signed to a label and has recently released two EPs and a debut album.

http://www.subpop.com/artists/fleet_foxes

http://allmusic.com/cg/amg.dll?p=amg&searchlink=FLEET|FOXES&sql=11:wpfrxqtdldse~T2
-------------------------------------------------------------------------------

Tabbed by: Les Gibson

The main intro acoustic guitar (below) needs:

CAPO 3
Tuning ECDGBE (tune low A up to a C)

Every other guitar had standard tuning.

--Main intro acoustic guitar:

e|-------0------------------|-------0-------------------|
B|--------------3\1---------|--------------3\1----------|
G|-2--0-----2-------2--0----|-2--0-----2-------2--0-----|
D|--------------------------|---------------------------|
C|-0------------0---------0-|-0------------0----------0-|
E|--------------------------|---------------------------|


--Clean electric guitar (0:10): standard tuning, no capo.

e|-----11----10----8-----6--|------8--6-----------------|
B|--13----11----8-----8-----|--6/8-------8--------------|
G|--------------------------|---------------10p8--------|
D|--------------------------|--------------------10--8--|
A|--------------------------|---------------------------|
E|--------------------------|---------------------------|

These intro parts play in the verses.


--VERSE 1


--Played in verse, acoustic: alternating between these chords:

e|-15--13--15--15--13-|
B|-13--13--13--13--13-|
G|-13--13--13--13--13-|
D|--------------------|
A|--------------------|
E|--------------------|


--GUITAR BREAK 1: two acoustic guitars at 1:33 :

e|--------------------------------|---------------------------------|
B|-4--3h4---1--1--4--3h4---1---1--|----4h6--------4-----4h6-------4-|
G|--------------------------------|-6-------6--5-----6-------6--5---|Picked
D|--------------------------------|---------------------------------|
A|--------------------------------|---------------------------------|
E|--------------------------------|---------------------------------|
 |                                |                                 |
e|--8---8---8---8---8---8---8---8-|--18--18--18--18--18--18--18--18-|
B|--8---8---8---8---8---8---8---8-|--18--18--18--18--18--18--18--18-|Strummed 
G|--8---8---8---8---8---8---8---8-|--18--18--18--18--18--18--18--18-|
D|--------------------------------|---------------------------------|
A|--------------------------------|---------------------------------|
E|--------------------------------|---------------------------------|


e|--------------------------------|---------------------------------|
B|-4--3h4---1--1--4--3h4---1---1--|----4h6--------4-----4h6-------4-|
G|--------------------------------|-6-------6--5-----6-------6--5---|
D|--------------------------------|---------------------------------|
A|--------------------------------|---------------------------------|
E|--------------------------------|---------------------------------|
 |                                |                                 |
e|--8---8---8---8---8---8---8---8-|--18--18--18--18--18--18--18--18-|
B|--8---8---8---8---8---8---8---8-|--18--18--18--18--18--18--18--18-| 
G|--8---8---8---8---8---8---8---8-|--18--18--18--18--18--18--18--18-|
D|--------------------------------|---------------------------------|
A|--------------------------------|---------------------------------|
E|--------------------------------|---------------------------------|


e|--------------------------------|
B|----6h8------6---8--6h8-----6---|
G|-8--------8--------------8------|
D|--------------------------------|
A|--------------------------------|
E|--------------------------------|
 |                                | 
e|-11--11--11--11--11--11--11--11-|
B|-13--13--13--13--13--13--13--13-| 
G|-13--13--13--13--13--13--13--13-|
D|--------------------------------|
A|--------------------------------|
E|--------------------------------|

A couple of extra measures, then:


--CHORUS (no guitars): 1:57

--REPEAT OF GUITAR BREAK 1

--VERSE 2: 2:27 

--REPEAT OF GUITAR BREAK 1

--CHORUS x2 : 3:26

--REPEAT OF GUITAR BREAK 1


--END (clean electric), 4:20 :

e|--------11----10---8-----6-----8-----|
B|--11/13----11----8---8\6---6/8---6---|
G|-----------------------------------8-| Repeat to fade
D|-------------------------------------|
A|-------------------------------------|
E|-------------------------------------|



| /  slide up
| \  slide down
| h  hammer-on
| p  pull-off
| ~  vibrato
| +  harmonic
| x  Mute note
===============================================================================
Добавлено: 02.08.2013
Другие материалы по этой песне:
  • Аккорды и текст

Страница создана 02.08.2013
http://primanota.ru/fleet-foxes/english-house-chords.htm
Привет, Гость.
Предлагаем пройти революционный курс по гитаре.
Подарок от PrimaNota.Ru, забирай!