PrimaNota.ru - самый крупный в мире бесплатный архив песенных текстов, аккордов, табулатур и нот


Flaw - Wait For Me - текст песни, таба, видео

Регистрация Запомнить меня
Войти через:  Facebook Google Twitter Vk Yandex Mail.ru

Flaw - Wait For Me - текст песни, таба, видео

Печатать
Просмотров: 253
Уроки эстрадного вокала в Санкт-Петербурге
Wait for me from Flaw
Tuning: BEADGBe
(although the bottom string doesn't get touched, this IS Flaw's tuning)
Listen carefully for the strumming, as it's kinda weird. The cello makes it hard to hear.
I think this is pretty *** close.

Intro
-------------------------------------------------|
-------------------------------------------------|
-12-12-12/11-11-11-11-11/9-9-9-9-9-9/7-7-7/9-7/9-|
--x--x--x-----x--x--x--x---x-x-x-x-x---x-x---x---|
-10-10-10/9---9--9--9--9/7-7-7-7-7-7/5-5-5/7-5/7-|
--0--0--0-----0--0--0--0---0-0-0-0-0---0-0---0---|
-------------------------------------------------|

-----------------------------------------------|
-----------------------------------------------|
-12-12-12/14-14-14-14-14/16-16-16-16-14-14/16~-|
--x--x--x-----x--x--x--x-----x--x--x--x--x-----|
-10-10-10/12-12-12-12-12/14-14-14-14-12-12/14~-|
--0--0--0-----0--0--0--0-----0--0--0--0--0-----|
-----------------------------------------------|

Verse
------------------------------0-00-00-00-000-|
------------------------------0-00-00-00-000-|
-12-12-12/11-11-11/12\11-11/9-0-00-00-00-000-|
--x--x--x-----x--x--------x---2-22-22-22-222-|
-10-10-10/9---9--9/10\9---9/7-2-22-22-22-222-|
--0--0--0-----0--0--------0---0-00-00-00-000-|
---------------------------------------------|

-------------------------------0-00-00-00-0000-|
-------------------------------0-00-00-00-0000-|
-12-12-12/14-14-14/16\14-14\12-0-00-00-00-0000-|
--x--x--x-----x--x--------x----2-22-22-22-2222-|
-10-10-10/12-12-12/14\12-12\10-2-22-22-22-2222-|
-------------------------------0-00-00-00-0000-|
-----------------------------------------------|

Pre-Chorus
-0-00-00-0-00-0~-|
-3-33-00-0-00-3~-|
-0-00-00-0-00-0~-|
-0-00-22-2-22-2~-|
-2-22-22-2-22-3~-|
-3-33-00-0-00----|
-----------------|

Chorus
-0-00-0-0-0-000-0-00-0-00-000-|
-0-00-0-3-3-333-3-33-3-00-000-|
-2-22-2-2-2-222-0-00-0-00-000-|
-2-22-2-0-0-000-2-22-2-22-222-|
-0-00-0---------3-33-3-22-222-|
-----------------------00-000-|
------------------------------|
Play the above part 3 times, then play this once after first chorus, twice after 2nd.
-0-0000-0-0-00-|
-0-0000-0-0-00-|
-0-0000-0-0-00-|
-2-2222-2-2-22-|
-2-2222-2-2-22-|
-0-0000-0-0-00-|
---------------|

Interlude
-0-000-0-0000-00-|
-3-333-0-0000-00-|
-0-000-0-0000-00-|
-2-222-2-2222-22-|
-3-333-2-2222-22-|
-------0-0000-00-|
-----------------|

The outro is the last part of the chorus repeated, then end on:

-0~--
-0~--
-0~--
-2~--
-2~--
-0~--
-----
Добавлено: 13.05.2012
Другие материалы по этой песне:
  • Аккорды и текст

Страница создана 04.04.2012
http://primanota.ru/flaw/wait-for-me-chords.htm
Привет, Гость.
Предлагаем пройти революционный курс по гитаре.
Подарок от PrimaNota.Ru, забирай!