PrimaNota.ru - самый крупный в мире бесплатный архив песенных текстов, аккордов, табулатур и нот


Flaw - Turn Theles - таба, видео

Регистрация Запомнить меня
Войти через:  Facebook Google Twitter Vk Yandex Mail.ru

Flaw - Turn Theles - таба, видео

Печатать
Просмотров: 72
-------------------------------------------------------------------------------
                             Turn the Tables - FLAW
-------------------------------------------------------------------------------
Tabbed by: Jake Angelastro
E-mail: jrangelastro@gmail.com

A brief note: 
1) The guys in Flaw use 7 string guitars, though I tabbed this by ear 
using a 6 string tuned B to b. 

2) Apologies in advance if there are errors. Some of the flourish licks are hard to decipher.
   Please send me any corrections so we can make this tab better. Enjoy!


Tuning: B standard on a 7 string guitar or a 6 string tuned down B to b.


. = palm-muted note or chord 

INTRO:

e|---------------------------------------------------------------------------|
b|---------------------------------------------------------------------------|
G|---------------------------------------------------------------------------|
D|---------------------------------------------------------------------------|
A|-----------7---10--------10---12-------------------------------------------|
E|-----------7---10--------10---12-------------------------------------------|
B|------0----5---8----0----8----10-------------------------------------------|
        .      /      .       /         ( / = slide up to chord )
 

e|---------------------------------------------------------------------------|
b|---------------------------------------------------------------------------|
G|---------------------------------------------------------------------------|
D|---------------------------------------------------------------------------|
A|---------------------------------------------------------------------------|
E|----7--7--7--10-10-10--9-------5--5--5--2--2--9--9-------------------------|
B|----5--5--5--8--8--8---7-------3--3--3--0--0--7--7-------------------------|
      .  .  .  .  .  .           .  .  .  .  .  .  . 
e|---------------------------------------------------------------------------|
b|---------------------------------------------------------------------------|
G|---------------------------------------------------------------------------|
D|---------------------------------------------------------------------------|
A|---------------------------------------------------------------------------|
E|----7--7--7--10-10-10--9--------12--12--12--12--10-9--10-------------------|
B|----5--5--5--8--8--8---7--------10--10--10--10--8--7--8--------------------|
      .  .  .  .  .  .            .   .   .    \    \  /

e|---------------------------------------------------------------------------|
b|---------------------------------------------------------------------------|
G|---------------------------------------------------------------------------|
D|---------------------------------------------------------------------------|
A|---------------------------------------------------------------------------|
E|----7--7--7--10-10-10--9-------5--5--5--2--2--9--9-------------------------|
B|----5--5--5--8--8--8---7-------3--3--3--0--0--7--7-------------------------|
      .  .  .  .  .  .           .  .  .  .  .  .  . 
e|---------------------------------------------------------------------------|
b|---------------------------------------------------------------------------|
G|---------------------------------------------------------------------------|
D|---------------------------------------------------------------------------|
A|---------------------------------------------------------------------------|
E|----7--7--7--10-10-10--9-------------7h8-8-8p7---10------------------------|
B|----5--5--5--8--8--8---7-----------------------8---------------------------|
      .  .  .  .  .  .      

1st Verse (lyrics come in here)

e|---------------------------------------------------------------------------|
b|---------------------------------------------------------------------------|
G|---------------------------------------------------------------------------|
D|---------------------------------------------------------------------------|
A|---------------------------------------------------------------------------|
E|----7--7--7--10-10-10--9-------5--5--5--2--2--9--9-------------------------|
B|----5--5--5--8--8--8---7-------3--3--3--0--0--7--7-------------------------|
      .  .  .  .  .  .           .  .  .  .  .  .  . 
e|---------------------------------------------------------------------------|
b|---------------------------------------------------------------------------|
G|---------------------------------------------------------------------------|
D|---------------------------------------------------------------------------|
A|---------------------------------------------------------------------------|
E|----7--7--7--10-10-10--9--------12--12--12--12--10-9--10-------------------|
B|----5--5--5--8--8--8---7--------10--10--10--10--8--7--8--------------------|
      .  .  .  .  .  .            .   .   .    \    \  /

e|---------------------------------------------------------------------------|
b|---------------------------------------------------------------------------|
G|---------------------------------------------------------------------------|
D|---------------------------------------------------------------------------|
A|---------------------------------------------------------------------------|
E|----7--7--7--10-10-10--9-------5--5--5--2--2--9--9-------------------------|
B|----5--5--5--8--8--8---7-------3--3--3--0--0--7--7-------------------------|
      .  .  .  .  .  .           .  .  .  .  .  .  . 
e|---------------------------------------------------------------------------|
b|---------------------------------------------------------------------------|
G|---------------------------------------------------------------------------|
D|---------------------------------------------------------------------------|
A|----------------------------------2h3-3-3p2--------------------------------|
E|----7--7--7--10-10-10--9--------------------3p0----------------------------|
B|----5--5--5--8--8--8---7---------------------------------------------------|
      .  .  .  .  .  .

CHORUS

e|---------------------------------------------------------------------------|
b|---------------------------------------------------------------------------|
G|---------------------------------------------------------------------------|
D|---------------------------------------------------------------------------|  
A|----7-------5-------7-------5-----3p2---5p0--------------------------------|
E|----7-------5-------7-------5---------3-----0h3----------------------------|
B|----5---8---3-------5---8---3----------------------------------------------|
            \               \      ( \ = hit note and slide down )

e|---------------------------------------------------------------------------|
b|---------------------------------------------------------------------------|
G|---------------------------------------------------------------------------|
D|---------------------------------------------------------------------------|
A|----7-------5-------3------------------0-3-2h0-----------------------------|
E|----7-------5-------3--------------0h3-------------------------------------|
B|----5---8---3-------1----------1h3-----------------------------------------|
            \                    (These licks are a bit hard to decipher)


INTERLUDE BEFORE 2nd VERSE 

e|---------------------------------------------------------------------------|
b|---------------------------------------------------------------------------|
G|---------------------------------------------------------------------------|
D|---------------------------------------------------------------------------|
A|---------------------------------------------------------------------------|
E|----7--7--7--10-10-10--9-------5--5--5--2--2--9--9-------------------------|
B|----5--5--5--8--8--8---7-------3--3--3--0--0--7--7-------------------------|
      .  .  .  .  .  .           .  .  .  .  .  .  . 
e|---------------------------------------------------------------------------|
b|---------------------------------------------------------------------------|
G|---------------------------------------------------------------------------|
D|---------------------------------------------------------------------------|
A|---------------------------------------------------------------------------|
E|----7--7--7--10-10-10--9--------12--12--12--12--10-9--10-------------------|
B|----5--5--5--8--8--8---7--------10--10--10--10--8--7--8--------------------|
      .  .  .  .  .  .            .   .   .    \    \  /

e|---------------------------------------------------------------------------|
b|---------------------------------------------------------------------------|
G|---------------------------------------------------------------------------|
D|---------------------------------------------------------------------------|
A|---------------------------------------------------------------------------|
E|----7--7--7--10-10-10--9-------5--5--5--2--2--9--9-------------------------|
B|----5--5--5--8--8--8---7-------3--3--3--0--0--7--7-------------------------|
      .  .  .  .  .  .           .  .  .  .  .  .  . 
e|---------------------------------------------------------------------------|
b|---------------------------------------------------------------------------|
G|---------------------------------------------------------------------------|
D|---------------------------------------------------------------------------|
A|---------------------------------------------------------------------------|
E|----7--7--7--10-10-10--9---------------Pause! Don't Play-------------------|
B|----5--5--5--8--8--8---7------------------(swell sound)--------------------|
      .  .  .  .  .  .


*** 2nd verse is the same as 1st verse. Simply repeat 1st verse riffs ***

*** 2nd Chorus: Twice as long as 1st chorus. Play the chorus riff through TWO TIMES ***


BRIDGE 

e|---------------------------------------------------------------------------|
b|---------------------------------------------------------------------------|
G|---------------------------------------------------------------------------|
D|---------------------------------------------------------------------------|
A|----7--7--x--7--7--3p2--------5--5--x--5--5----3p2---5---------------------|
E|----7--7--x--7--7------3p0----5--5--x--5--5--------3-----------------------|
B|----5--5--x--5--5-------------3--3--x--3--3--------------------------------|
      
e|---------------------------------------------------------------------------|
b|---------------------------------------------------------------------------|
G|---------------------------------------------------------------------------|
D|---------------------------------------------------------------------------|
A|----7--7--x--7--7----3p2--------3--3--x--3--3---3-3-5-5--------------------|
E|----7--7--x--7--7--------3p0----3--3--x--3--3---3-3-5-5--------------------|
B|----5--5--x--5--5---------------1--1--x--1--1---1-1-3-3--------------------|
                                                  . . . .

e|---------------------------------------------------------------------------|
b|---------------------------------------------------------------------------|
G|---------------------------------------------------------------------------|
D|---------------------------------------------------------------------------|
A|----7--7--x--7--7--3p2--------5--5--x--5--5----3p2---5---------------------|
E|----7--7--x--7--7------3p0----5--5--x--5--5--------3-----------------------|
B|----5--5--x--5--5-------------3--3--x--3--3--------------------------------|
      
e|---------------------------------------------------------------------------|
b|---------------------------------------------------------------------------|
G|---------------------------------------------------------------------------|
D|---------------------------------------------------------------------------|
A|----7--7--x--7--7---------------3--3---3--3---3-3-5-5----------------------|
E|----7--7--x--7--7----5h3-2h3----3--3---3--3---3-3-5-5----------------------|
B|----5--5--x--5--5---------------1--1---1--1---1-1-3-3----------------------|
                                                . . . .

e|---------------------------------------------------------------------------|
b|---------------------------------------------------------------------------|
G|---------------------------------------------------------------------------|
D|---------------------------------------------------------------------------|
A|---------------------------------------------------------------------------|
E|----7--7--7--10-10-10--9--9--9--5--5--5--2--2--9--9------------------------|
B|----5--5--5--8--8--8---7--7--7--3--3--3--0--0--7--7------------------------|
      .  .  .  .  .  .   .  .  .  .  .  .  .  .  .  . 
e|---------------------------------------------------------------------------|
b|---------------------------------------------------------------------------|
G|---------------------------------------------------------------------------|
D|---------------------------------------------------------------------------|
A|---------------------------------------------------------------------------|
E|----7--7--7--10-10-10--9--9--9--12--12--12--12--10-9--10-------------------|
B|----5--5--5--8--8--8---7--7--7--10--10--10--10--8--7--8--------------------|
      .  .  .  .  .   .  .  .  .   .   .   .   .  .  .  .

e|---------------------------------------------------------------------------|
b|---------------------------------------------------------------------------|
G|---------------------------------------------------------------------------|
D|---------------------------------------------------------------------------|
A|---------------------------------------------------------------------------|
E|----7--7--7--10-10-10--9--9--9--5--5--5--2--2--9--9------------------------|
B|----5--5--5--8--8--8---7--7--7--3--3--3--0--0--7--7------------------------|
      .  .  .  .  .  .   .  .  .  .  .  .  .  .  .  . 
e|---------------------------------------------------------------------------|
b|---------------------------------------------------------------------------|
G|---------------------------------------------------------------------------|
D|---------------------------------------------------------------------------|
A|----7--7--7--10-10-10----5---5---5-----------------------------------------|
E|----7--7--7--10-10-10----5---5---5-----------------------------------------|
B|----5--5--5--8--8--8-----3---3---3-----------------------------------------|
     (strum these chords as you go into final chorus) 


3rd CHORUS  


e|---------------------------------------------------------------------------|
b|---------------------------------------------------------------------------|
G|---------------------------------------------------------------------------|
D|---------------------------------------------------------------------------|  
A|----7-------5-------7-------5-----3p2---5p0--------------------------------|
E|----7-------5-------7-------5---------3-----0h3----------------------------|
B|----5---8---3-------5---8---3----------------------------------------------|
            \               \      

e|---------------------------------------------------------------------------|
b|---------------------------------------------------------------------------|
G|---------------------------------------------------------------------------|
D|---------------------------------------------------------------------------|
A|----7-------5-------3------------------0-3-2h0-----------------------------|
E|----7-------5-------3--------------0h3-------------------------------------|
B|----5---8---3-------1----------1h3-----------------------------------------|
            \                    


e|---------------------------------------------------------------------------|
b|---------------------------------------------------------------------------|
G|---------------------------------------------------------------------------|
D|---------------------------------------------------------------------------|  
A|----7-------5-------7-------5-----3p2---5p0--------------------------------|
E|----7-------5-------7-------5---------3-----0h3----------------------------|
B|----5---8---3-------5---8---3----------------------------------------------|
            \               \   

e|---------------------------------------------------------------------------|
b|---------------------------------------------------------------------------|
G|---------------------------------------------------------------------------|
D|---------------------10----------12----------------------------------------|
A|----7-------5--------x------------x----------------------------------------|
E|----7-------5--------8-----------10----------------------------------------|
B|----5---8---3--------------------------------------------------------------|
            \                /
                     (strum octave chord then slide up)        

OUTRO


e|---------------------------------------------------------------------------|
b|---------------------------------------------------------------------------|
G|---------------------------------------------------------------------------|
D|---------------------------------------------------------------------------|  
A|----7-------5-------7-------5-----3p2---5p0--------------------------------|
E|----7-------5-------7-------5---------3-----0h3----------------------------|
B|----5---8---3-------5---8---3----------------------------------------------|
            \               \     

e|---------------------------------------------------------------------------|
b|---------------------------------------------------------------------------|
G|---------------------------------------------------------------------------|
D|---------------------------------------------------------------------------|
A|----7-------5-------3------------------0-3-2h0-----------------------------|
E|----7-------5-------3--------------0h3-------------------------------------|
B|----5---8---3-------1----------1h3-----------------------------------------|
            \                      
e|---------------------------------------------------------------------------|
b|---------------------------------------------------------------------------|
G|---------------------------------------------------------------------------|
D|---------------------------------------------------------------------------|  
A|----7-------5-------7-------5-----3p2---5p0--------------------------------|
E|----7-------5-------7-------5---------3-----0h3----------------------------|
B|----5---8---3-------5---8---3----------------------------------------------|
            \               \      

e|---------------------------------------------------------------------------|
b|---------------------------------------------------------------------------|
G|---------------------------------------------------------------------------|
D|---------------------------------------------------------------------------|
A|----7-------5-------3------------------------------------------------------|
E|----7-------5-------3------------------------------------------------------|
B|----5---8---3-------1------------------------------------------------------|
            \        Hold final chord             



ONE MORE THING! 

e|---------------------------------------------------------------------------|
b|---------------------------------------------------------------------------|
G|---------------------------------------------------------------------------|
D|---------------------------------------------------------------------------|  
A|-----3p2---5p0-------------------------------------------------------------|
E|---------3-----0h3----------------------8p7----10p0-------------------------|
B|--------------------------------------------8--------5h8---------------------|
Some people may prefer playing  ------>     Like this
        this part 

************************************

| /   slide up
| \   slide down
| h   hammer-on
| p   pull-off
| ~   vibrato
| +   harmonic
| x   Mute note
| b   Bend
| pb  Pre-bend
| br  Bend release
| pbr Pre-bend release
| brb Bend release bend

************************************
Добавлено: 26.06.2016
Другие материалы по этой песне:
  • Аккорды и текст

Страница создана 26.06.2016
http://primanota.ru/flaw/turn-theles-chords.htm
Привет, Гость.
Предлагаем пройти революционный курс по гитаре.
Подарок от PrimaNota.Ru, забирай!