PrimaNota.ru - самый крупный в мире бесплатный архив песенных текстов, аккордов, табулатур и нот


Flaw - Scheme - текст песни, таба, видео

Регистрация Запомнить меня
Войти через:  Facebook Google Twitter Vk Yandex Mail.ru

Flaw - Scheme - текст песни, таба, видео

Печатать
Просмотров: 182
Tuning: 7 String Standard   (B E A D G B E)
        6 String 2.5 Steps Down

INTRO
D|---------------------------------|
A|---------4-----------4-------5---|
E|---------------------------------|
B|-2---2-------2---2-------2-------|
 |
 |Guitar 2
D|---------------------------------|
A|-4---------------------------5---|  Distorted
E|-4---------------------------5---|    Part
B|-2---------------------------3---|



D|---------------------------------|
A|---------------------------------|
E|-4---4-4-4----4---4-4-4----4/5---|
B|-2---2-2-2----2---2-2-2----2/3---|




POWER RIFF                       <> = Natural Harmonics
B|------------------------------------------------------------------|
G|--------<5>----------<5>-----------------<5>----------<5>---------|
D|------------------------------------------------------------------|
A|------------------------------------------------------------------|
E|-4---4--------4---4--------4/5----4---4--------4---4--------42---|
B|-2---2--------2---2--------2/3----2---2--------2---2--------2---|




(I Broke Those Chains...)
D|----------------------------------|
A|----------------------------------|
E|-4----4----4-4-5----5----5/7------|
B|-2----2----2-2-3----3----3/5------|



CHORUS
D|-----------------------------------|    |-----|
A|-----------------------------------|    |--2--|
E|-4----4-4-4--4-5--5-5---5-5/7--7-7-|    |--2--|
B|-2----2-2-2--2-3--3-3---3-3/5--5-5-|    |--0--|



2ND CHORUS LEAD
E|----  ----    ------------------------------|
B|-14-  -17-    ------------------------------|
G|----  ----    -6-------------7-------/9-----| Rapidly Pick
D|----  ---- x2 ------------------------------|  All Notes
A|----  ----    -4-------------5-------/7-----|
E|----  ----    ------------------------------|
B|----  ----    ------------------------------|



OUTRO
B|------------------------------------------------|
G|------------<5>---------------------------------|
D|------------------------------------------------|
A|------------------------------------------------|
E|-4---4---4-------------4---4---4---5------------|
B|-2---2---2-------------2---2---2---3------------|



B|-------------------------------------|
G|------------<5>----------------------|
D|-------------------------------------|
A|-------------------------------------|
E|-4---4---4-------------4---4---5---4-|
B|-2---2---2-------------2---2---3---2-|
Добавлено: 26.04.2012
Другие материалы по этой песне:
  • Аккорды и текст

Страница создана 26.04.2012
http://primanota.ru/flaw/scheme-chords.htm
Привет, Гость.
Предлагаем пройти революционный курс по гитаре.
Подарок от PrimaNota.Ru, забирай!