PrimaNota.ru - самый крупный в мире бесплатный архив песенных текстов, аккордов, табулатур и нот


Flaw - Only The Strong - аккорды и текст, таба, видео

Регистрация Запомнить меня
Войти через:  Facebook Google Twitter Vk Yandex Mail.ru

Flaw - Only The Strong - аккорды и текст, таба, видео

Печатать
Просмотров: 244
Only The Strong
Flaw
If you have any questions or comments email me at guitarboy725@aol.com

Distorian is on the whole song except some of the bridge.

Intro: 4X
eb|-----------------------------------------------------------------|
Bb|-----------------------------------------------------------------|
Gb|-----------------------------------------------------------------|
Db|-0h1--1-1p0---0h1--1-1p0---0h1--1-1p0---0h1--1-1h3---------------|
Ab|-0h1--1-1p0---0h1--1-1p0---0h1--1-1p0---0h1--1-1h3---------------|
Db|-0h1--1-1p0---0h1--1-1p0---0h1--1-1p0---0h1--1-1h3---------------|

Verse: 6X - The 6th time through you let the notes ring
eb|-----------------------------------------------------------------|
Bb|-----------------------------------------------------------------|
Gb|-----------------------------------------------------------------|
Db|-0h1--1-1p0---0h1--1-1p0---0h1--1-1p0---0h1--1-1h3---------------|
Ab|-0h1--1-1p0---0h1--1-1p0---0h1--1-1p0---0h1--1-1h3---------------|
Db|-0h1--1-1p0---0h1--1-1p0---0h1--1-1p0---0h1--1-1h3---------------|

Chorus: 2X - Strumming is not shone
eb|-----------------------------------------------------------------|
Bb|-----------------------------------------------------------------|
Gb|-----------------------------------------------------------------|
Db|-0------------8------------3------------10-----------------------|
Ab|-0------------8------------3------------10-----------------------|
Db|-0------------8------------3------------10-----------------------|

Verse: 6X - The 6th time through you let the notes ring
eb|-----------------------------------------------------------------|
Bb|-----------------------------------------------------------------|
Gb|-----------------------------------------------------------------|
Db|-0h1--1-1p0---0h1--1-1p0---0h1--1-1p0---0h1--1-1h3---------------|
Ab|-0h1--1-1p0---0h1--1-1p0---0h1--1-1p0---0h1--1-1h3---------------|
Db|-0h1--1-1p0---0h1--1-1p0---0h1--1-1p0---0h1--1-1h3---------------|

Chorus: 2X - Strummin not shone, hit the open power chord and let ring 
only on the last time
eb|-----------------------------------------------------------------|
Bb|-----------------------------------------------------------------|
Gb|-----------------------------------------------------------------|
Db|-0------------8------------3------------10----------------|-0----|
Ab|-0------------8------------3------------10----------------|-0----|
Db|-0------------8------------3------------10----------------|-0----|

Bridge: Timing is not shone, The bridge is clean until the distortian 
starts at the power chord on the 12 fret
eb|-----------------------------------------------------------------|
Bb|-----------------------------------------------------------------|
Gb|---------14---14------10-------14--------------------------------|
Db|---14----14---14-14---10-10----14-14---7--8--12--8--10--7--------|
Ab|-----12-------12------8----8---12------7--8--12--8--10--7--------|
Db|-12----12-----12------8--------12------7--8--12--8--10--7--------|

Chorus: 4X - strumming not shone
eb|-----------------------------------------------------------------|
Bb|-----------------------------------------------------------------|
Gb|-----------------------------------------------------------------|
Db|-0------------8------------3------------10-----------------------|
Ab|-0------------8------------3------------10-----------------------|
Db|-0------------8------------3------------10-----------------------|

Outro:  
eb|-----------------------------------------------------------------|
Bb|-----------------------------------------------------------------|
Gb|-----------------------------------------------------------------|
Db|-0h1--1-1p0---0h1--1-1p0---0h1--1-1p0---0h1--1-1h3---------------|
Ab|-0h1--1-1p0---0h1--1-1p0---0h1--1-1p0---0h1--1-1h3---------------|
Db|-0h1--1-1p0---0h1--1-1p0---0h1--1-1p0---0h1--1-1h3---------------|

eb|-----------------------------------------------------------------|
Bb|-----------------------------------------------------------------|
Gb|-----------------------------------------------------------------|
Db|-0h1--1-1p0---0h1--1-1p0---0h1--1-1p0---0h1--1-1h3---------------|
Ab|-0h1--1-1p0---0h1--1-1p0---0h1--1-1p0---0h1--1-1h3---------------|
Db|-0h1--1-1p0---0h1--1-1p0---0h1--1-1p0---0h1--1-1h3---------------|

eb|-----------------------------------------------------------------|
Bb|-----------------------------------------------------------------|
Gb|-----------------------------------------------------------------|
Db|-0h1--1-1p0------------------------------------------------------|
Ab|-0h1--1-1p0------------------------------------------------------|
Db|-0h1--1-1p0------------------------------------------------------|

===
Добавлено: 09.01.2014
Другие материалы по этой песне:

Страница создана 24.02.2012
http://primanota.ru/flaw/only-the-strong-chords.htm
Привет, Гость.
Предлагаем пройти революционный курс по гитаре.
Подарок от PrimaNota.Ru, забирай!