PrimaNota.ru - самый крупный в мире бесплатный архив песенных текстов, аккордов, табулатур и нот


Flaw - Many Faces - текст песни, таба, драм-таба, видео

Регистрация Запомнить меня
Войти через:  Facebook Google Twitter Vk Yandex Mail.ru

Flaw - Many Faces - текст песни, таба, драм-таба, видео

Печатать
Просмотров: 193
Уроки эстрадного вокала в Санкт-Петербурге
FLAW  -  MANY FACES


Tuning: 7-String Standard   (B E A D G B E)


INTRO
|-----------------------------|
|-7--6----------2--4----------|
|-7--6----------2--4----------|
|-5--4----------0--2----------|
|-----------------------------|



MAIN
|---------------------------------------------------------|
|-6------6-------X--X--6------6-------X--X--6------9------|
|-6------6-------X--X--6------6-------X--X--6------9------|
|-4------4-------X--X--4------4-------X--X--4------7------|
|---------------------------------------------------------|


|---------------------------------------------------------|
|-11-----11------X--X--11-----11------X--X--119---9-7---|
|----------------X--X-----------------X--X----------------|
|-9------9-------X--X--9------9-------X--X--9-7---7-5---|
|---------------------------------------------------------|


|---------------------------------------------------------|
|-6------6-------X--X--6------6-------X--X--6------4------|
|-6------6-------X--X--6------6-------X--X--6------4------|
|-4------4-------X--X--4------4-------X--X--4------2------|
|---------------------------------------------------------|


|---------------------------------------------------------|
|-----------------------------7--6----------2--4----------|
|-4------4-------X--X--4------7--6----------2--4----------|
|-4------4-------X--X--4------5--4----------0--2----------|
|-2------2-------X--X--2----------------------------------|




VERSE
|-------------------------------------------------------------------------|
|--------------------------7----------------------------------------------|
|-4-----------------2------7----------------------------------------------|
|-4-----------------2------5----------------------------------------------|
|-2-----------------0-----------------------------------------------------|


|-------------------------------------------------------------------------|
|-------------------2-------------------------7--6----------2--4----------|
|-4-----------------2------2------------X--X--7--6----------2--4----------|
|-4-----------------0------2------------X--X--5--4----------0--2----------|
|-2------------------------0------------X--X------------------------------|




CHORUS
|---------------0----------------------------------0-------------------|
|--------0-------------0--------------------0-------------0------------|
|----------------------------------------------------------------------|
|-7----------------------------------6---------------------------------|
|-7----------------------------------6---------------------------------|
|-5----------------------------------4---------------------------------|
|----------------------------------------------------------------------|

                                    ___________________________________
                                   |                        1ST ENDING |
|---------------0------------------|---------------4-------------------|
|--------0-------------0-----------|--------4-------------4------------|
|----------------------------------|-6---------------------------------|
|-7--------------------------------|-6---------------------------------|
|-7--------------------------------|-4---------------------------------|
|-5--------------------------------|-----------------------------------|
|----------------------------------|-----------------------------------|


 _________________________________________________________
|                                              2ND ENDING |
|---------------------------------------------------------|  Play At The End
|-----------------------------7--6----------2--4----------|   Of The First 
|-4------4-------X--X--4------7--6----------2--4----------|      CHORUS
|-4------4-------X--X--4------5--4----------0--2----------|
|-2------2-------X--X--2----------------------------------|



 ________________________________________________________
|                                             3RD ENDING |
|--------------------------------------------------------|
|--------------------------------------------------------| Play At The End Of
|-4------4-------X--X--4------4------X--X--4-------X--X--|     The Second
|-4------4-------X--X--4------4------X--X--4-------X--X--|       CHORUS
|-2------2-------X--X--2------2------X--X--2-------X--X--|




MIDDLE
|---------------------6---------------------------------------------|
|-7------------------------------------------------------------------|
|-7-------------------4------X--X--4--------------------------------|
|-5---------------------------X--X--4--------------------------------|
|-----------------------------X--X--2--------------------------------|


|--------------------------------------------------------------------|
|-7----------4-------------------------------------------------------|
|-7----------4----------------X--X--4--------------------------------|
|-5----------2----------------X--X--4--------------------------------|
|-----------------------------X--X--2--------------------------------|


|---------------------6---------------------------------------------|
|-7------------------------------------------------------------------|
|-7-------------------4------X--X--4--------------------------------|
|-5---------------------------X--X--4--------------------------------|
|-----------------------------X--X--2--------------------------------|


|------------11------------------------------------------------------|
|-7------------------------------------------------------------------|
|-7----------9----------------X--X--2--------------------------------|
|-5---------------------------X--X--2--------------------------------|
|-----------------------------X--X--0--------------------------------|




OUTRO
|-----------------------------------------------------------------------------------------|
|-4------4------4------4-------2--4------------4------4------7------2------2--4-----------|
|-4------4------4------4-------2--4------------4------4------7------2------2--4-----------|
|-2------2------2------2-------0--2------------2------2------5------0------0--2-----------|
  .      .      .      .       .  .            .      .      .      .      .  .



|------------------------------------------------------------7------4---------------------|
|-4------4------4------4-------2--4------------4------4------7------4------2--2-----------|
|-4------4------4------4-------2--4------------4------4------5------2------2--2-----------|
|-2------2------2------2-------0--2------------2------2--------------------0--0-----------|
  .      .      .      .       .  .            .      .      .      .      .  .



|-----------------------------------------------------------------------------------------|
|-4------4------4------4-------2--4------------4------4------7------2------2--4-----------|
|-4------4------4------4-------2--4------------4------4------7------2------2--4-----------|
|-2------2------2------2-------0--2------------2------2------5------0------0--2-----------|
  .      .      .      .       .  .            .      .      .      .      .  .



|------------------------------------------------------------7------4---------------------|
|-4------4------4------4-------2--4------------4------4------7------4------2--------------|
|-4------4------4------4-------2--4------------4------4------5------2------2--------------|
|-2------2------2------2-------0--2------------2------2--------------------0--------------|
  .      .      .      .       .  .            .      .
Добавлено: 02.07.2012
Другие материалы по этой песне:
  • Аккорды и текст

Страница создана 18.06.2012
http://primanota.ru/flaw/many-faces-chords.htm
Привет, Гость.
Предлагаем пройти революционный курс по гитаре.
Подарок от PrimaNota.Ru, забирай!