PrimaNota.ru - самый крупный в мире бесплатный архив песенных текстов, аккордов, табулатур и нот


Flaw - Final Cry - текст песни, таба, видео

Регистрация Запомнить меня
Войти через:  Facebook Google Twitter Vk Yandex Mail.ru

Flaw - Final Cry - текст песни, таба, видео

Печатать
Просмотров: 193
Artist: Flaw
Song: Final Cry
Album: Endangdered Species
Tuning: Drop B (c# G# E B F# B)
**This Tab is not 100% If you have any corrections please go right ahead!
Please Rate!


Intro and Verse: (heavy Dist. lots of mid, and some bass)

       
c#|----x----x--x---x--x----x-----------------------|
G#|----x----x--x---x--x----x-----------------------|
E |----x----x--x---x--x----x-----------------------|
B |----2----2--2---2--2----2-----------------------|
F#|----2----2--2---2--2----2-----------------------|
B |----2----2--2---2--2----2             (x5)<-----|Intro
       .    .  .   .  .    .
      Down up down up down down <---(strum pattern)

       "sooo long...i've hoped...to be strong...down-sloped"
c#|-----x----x-x-------x----x--x----x--x----x--|
G#|-----x----x-x-------x----x--x----x--x----x--|
E |-----x----x-x-------x----x--x----x--x----x--|
B |----/7----9p7----\2-2----2--2----2--2----2--|
F#|----/7----9p7----\2-2----2--2----2--2----2--|
B |----/7----9p7----\2-2----2--2----2--2----2--|
                     Down  up down up down down <---(strum pattern starts after slide)
for each of lyrics divided by "..." repeat this process.

Pre-Chorus:

c#|----x-x-x---x-x-x-x-x-x-x-x-x-x--x--x-|
G#|----x-x-x---x-x-x-x-x-x-x-x-x-x--x--x-|
E |----x-x-x---x-x-x-x-x-x-x-x-x-x--x--x-|
B |----3-3-3---7-7-7h9-9-9p7-7-7-7-\3-\2-|
F#|----3-3-3---7-7-7h9-9-9p7-7-7-7-\3-\2-|
B |----3-3-3---7-7-7h9-9-9p7-7-7-7-\3-\2-|

      "And the damage will commence..."


key:
/ = slide down
\ = slide up
h = hammer on
p = pull off
. = palm mute 
Добавлено: 29.02.2012
Вам также может быть интересно:
Другие материалы по этой песне:
  • Аккорды и текст

Страница создана 29.02.2012
http://primanota.ru/flaw/final-cry-chords.htm
Привет, Гость.
Предлагаем пройти революционный курс по гитаре.
Подарок от PrimaNota.Ru, забирай!