PrimaNota.ru - самый крупный в мире бесплатный архив песенных текстов, аккордов, табулатур и нот


Flaw - All The Worst - текст песни, таба, бас-таба, видео

Регистрация Запомнить меня
Войти через:  Facebook Google Twitter Vk Yandex Mail.ru

Flaw - All The Worst - текст песни, таба, бас-таба, видео

Печатать
Просмотров: 179
-----------------------------------------------------------------------------
                             ALL THE WORST - Flaw
-----------------------------------------------------------------------------
please notice this is one of my first tabs, so i can't guarantee it's 100% right! Please 
comment if you find some mistakes.

Tuning: Standart (E,A,D,G,B,E)
Tempo: 155 bpm

//Intro// (Guitar starts at 0:13)
use a volume pedal for this part to slowly fade out the notes!
e|----------|----------|----------|----------|
B|----------|----------|----------|----------|
G|----------|----6h7~~~|~~~~~~~~~~|~~~~~~~---|
D|-----7~~~~|~~~~------|----------|----------|
A|----------|----------|----------|----------|
E|----------|----------|----------|----------|

//Verse 1// (0:19) w/volume pedal
Crunch Tone
e|----------|----------|----------|----------|-|
B|----------|----------|----------|----------|*|
G|----6-7---|----------|----------|----------|-|
D|--------7-|----------|----------|----------|-|
A|-xx-------|----------|----------|----------|*|
E|-xx-------|----------|----------|----------|-|

e|----------|----------|----------|----------|
B|----------|----------|----------|----------|
G|----6-7---|----------|----------|----------|
D|--------7-|------7h9-|----4-5-4-|-(4)\-----|
A|-xx-------|----------|----------|----------|
E|-xx-------|----------|----------|----------|

e|-----------------|----------|-10+------|----------|
B|-----------------|----------|----------|----------|
G|----11h12p11-----|----------|----------|----------|
D|--------------12-|----------|----------|----------|
A|-xx--------------|----------|----------|----------|
E|-xx--------------|----------|----------|----------|

e|----------|----------|----------|----------|
B|----------|----------|----------|----------|
G|----6-7---|----------|----------|----------|
D|--------7-|------7h9-|----4-5-4-|-(4)\-----|
A|-xx-------|----------|----------|----------|
E|-xx-------|----------|----------|----------|

//Chorus// (0:55)
Distortion Tone
e|----------|----------|----------|----------|
B|----------|----------|----------|----------|
G|----------|----------|----------|----------|
D|----------|----------|----------|----------|
A|-2--2--2--|-(2)------|-5--5--7--|-(7)------|
E|-0--0--0--|-(0)------|-3--3--5--|-(5)------|

e|----------|----------|-----------------|----------|----------|---------|-|
B|----------|----------|-----------------|----------|----------|---------|-|
G|----------|----------|-----------------|----------|----------|---------|*|
D|----------|----------|-12---10--9------|----------|----------|---------|-|
A|-2--2--2--|-(2)------|-------------10--|-(10)-----|-5--5--7--|-(7)-----|*|
E|-0--0--0--|-(0)------|-----------------|----------|-3--3--5--|-(5)-----|-|

//Interlude// (1:25)
e|----------|----------|----------|----------|
B|----------|----------|----------|----------|
G|----------|----------|----------|----------|
D|----------|----------|----------|----------|
A|-2-2------|----------|-2-2------|----------|
E|-0-0------|----------|-0-0------|----------|

//Verse 2//  (1:31)
like the first verse, but without repetition on the first 4 bars.

//Chorus// (1:55)

//Solo// (2:26)
e|----------------------|--------------------|-------------------|---------------------|
B|----------------------|--------------------|-------------------|---------------------|
G|-16-x-16-14-x-14-11-x-|-11-12-x-12-9-x-9-x-|-------------------|-----------9-11-9-11-|
D|----------------------|--------------------|-9-9-9-7-7-7-12-12-|-12-9-9-9------------|
A|----------------------|--------------------|-------------------|---------------------|
E|----------------------|--------------------|-------------------|---------------------|

                                                                  slowly bend til 14th fret
e|----------------------|--------------------|-------------------|--------------------------|
B|----------------------|--------------------|-------------------|--------------------------|
G|-16-x-16-14-x-14-11-x-|-11-12-x-12-9-x-9-x-|-------------------|-----------9--------------|
D|----------------------|--------------------|-9-9-9-7-7-7-12-12-|-12-12-13-12-12-12-12-12--|
A|----------------------|--------------------|-------------------|--------------------------|
E|----------------------|--------------------|-------------------|--------------------------|

//Bridge// (2:38)
e|------------|--------------|
B|------------|--------------|
G|------------|--------------|
D|------------|--------------|
A|-4---4---7--|-(7)----------|
E|-2---2---5--|-(5)----------|  repeat 8x

//Chorus// (3:02)
play the Chorus Part 3x and let ring and fade the last note.
Добавлено: 05.03.2012
Другие материалы по этой песне:
  • Аккорды и текст

Страница создана 05.03.2012
http://primanota.ru/flaw/all-the-worst-chords.htm
Привет, Гость.
Предлагаем пройти революционный курс по гитаре.
Подарок от PrimaNota.Ru, забирай!