PrimaNota.ru - самый крупный в мире бесплатный архив песенных текстов, аккордов, табулатур и нот


Flatsound - You Said Okay - таба, видео

Регистрация Запомнить меня
Войти через:  Facebook Google Twitter Vk Yandex Mail.ru

Flatsound - You Said Okay - таба, видео

Печатать
Просмотров: 276
B - 7 9 9 x x x


  Intro:

  (it all started with closed eyes...)
                      (after 3rd time)
e|----------------|----------------------|
B|----------------|----------------------|
G|----------------|----------------------|
D|----------------|-------------------8--|
A|--------9-------|--------9-------------|
E|--7--7----------|--7--7----------------|



  (but with the weight of the bible...)

e|---------------------|
B|---------------------|
G|---------------------|
D|--8-----8-----8-9-8--|
A|-----9-----9---------|
E|---------------------|



  (but if that's the case...)

e|--------------------|
B|--------------------|
G|--------------------|
D|--9--9--9----9------|
A|--9--9--9----9------|
E|--7--7--7----7------|



  (i'm singing la la la...)

e|--------------------|
B|--------------------|
G|--------------------|
D|--9--9--9-----------|
A|--9--9--9-----------|
E|--7--7--7-----------|



  (so if we could just pretend...)

e|----------------|
B|----------------|
G|----------------|
D|----------------|
A|--------9-------|
E|--7--7----------|



  (cause i still think back...)

e|--------------------|
B|--------------------|
G|--------------------|
D|--9--9--9----9--9---|
A|--9--9--9----9--9---|
E|--7--7--7----7--7---|



  (you said okay...)

e|----------------|
B|----------------|
G|----------------|
D|----------------|
A|--------9-------|
E|--7--7----------|



  Outro:
  
e|---------------------|
B|---------------------|
G|---------------------|
D|--8-----8-----8-9-8--|
A|-----9-----9---------|
E|---------------------|
Добавлено: 10.04.2015
Другие материалы по этой песне:
  • Аккорды и текст

Страница создана 10.04.2015
http://primanota.ru/flatsound/you-said-okay-chords.htm
Привет, Гость.
Предлагаем пройти революционный курс по гитаре.
Подарок от PrimaNota.Ru, забирай!