PrimaNota.ru - самый крупный в мире бесплатный архив песенных текстов, аккордов, табулатур и нот


Flat Duo Jets - My Life My Love - таба, видео

Регистрация Запомнить меня
Войти через:  Facebook Google Twitter Vk Yandex Mail.ru

Flat Duo Jets - My Life My Love - таба, видео

Печатать
Просмотров: 87
Intro (is G and D, playing some notes with your fingers)

   G
e|-3-3--3-3--3-3-3-3-3-3-3--3-3-3-3-3--3-3-3-3-3-3-3--|
B|-3-3--3-3--3-3-3-3-3-3-3--3-3-3-3-3--3-3-3-3-3-3-3--|
G|-3h4--4-4--4h5h4-4-4-4-4--3-4h5-4h5--4h5h4-4-4-4-4--|
D|-----------------5-5-5-5-------------------5-5-5-5--|
A|----------------------------------------------------|
E|----------------------------------------------------|

   D
e|-10-10--10-10--10-10-10-10-10-10-10--|
B|-10-10--10-10--10-10-10-10-10-10-10--|
G|-10h11--11-11--11h12h11-11-11-11-11--|
D|------------------------12-12-12-12--|
A|-------------------------------------|
E|-------------------------------------|

   G
e|-3-3--3-3--3-3-3-3-3-3-3--|
B|-3-3--3-3--3-3-3-3-3-3-3--|
G|-3h4--4-4--4h5h4-4-4-4-4--|
D|-----------------5-5-5-5--|
A|--------------------------|
E|--------------------------|

   D
e|-10-10--10-10--10-10-10-10-10-10-10--|
B|-10-10--10-10--10-10-10-10-10-10-10--|
G|-10h11--11-11--11h12h11-11-11-11-11--|
D|------------------------12-12-12-12--|
A|-------------------------------------|
E|-------------------------------------|

   G                  D#9 D9
e|-3-3--3-3--3-3-3-3-x------|
B|-3-3--3-3--3-3-3-3-x-6--5-|
G|-3h4--4-4--4h5h4-4-x-6--5-|
D|-----------------5-x-5--4-|
A|---------------------6--5-|
E|--------------------------|

Verse (The chords are G C G C D C and a Turnaround)

  G                C
e|-------------------------------------|
B|-------------------------------------|
G|-------------------------------------|    x2
D|-----------------5-5-7-7-5-5-7-7-----|
A|5-5-7-7-5-5-7-7--3-3-3-3-3-3-3-3-----|
E|3-3-3-3-3-3-3-3----------------------|

  D                C
e|---------------------------------|
B|---------------------------------|
G|---------------------------------|
D|7-7-9-9-7-7-9-9--5-5-7-7-5-5-7-7-|
A|5-5-5-5-5-5-5-5--3-3-3-3-3-3-3-3-|
E|---------------------------------|

  and the turnaround              D#9 D9
e|----------------------------------------|
B|----3---3-5b6-6-6-6-6-6-6*---3-x-6--5---|
G|----3-5-3-5b6-6-6-6-6-6-6--5-3-x-6--5---|
D|------5--------------------5---x-5--4---|
A|-------------------------------x-6--5---|
E|3-3-------------------------------------|

*Play those notes while you keep them bend

The rest of the song use the same chords and the turnaround (G C D). They change during 
the song but listening you will know when use them. I hope this help you.
Добавлено: 22.11.2013
Другие материалы по этой песне:
  • Аккорды и текст

Страница создана 22.11.2013
http://primanota.ru/flat-duo-jets/my-life-my-love-chords.htm
Привет, Гость.
Предлагаем пройти революционный курс по гитаре.
Подарок от PrimaNota.Ru, забирай!