PrimaNota.ru - самый крупный в мире бесплатный архив песенных текстов, аккордов, табулатур и нот


Flat Duo Jets - Crazy Hazy Kisses - таба, видео

Регистрация Запомнить меня
Войти через:  Facebook Google Twitter Vk Yandex Mail.ru

Flat Duo Jets - Crazy Hazy Kisses - таба, видео

Печатать
Просмотров: 156
This is my first tab and this song has no tabs, so here ya go!
Feedback, please (:(Song for reference: https://www.youtube.com/watch?v=Q6ATS1hZFBM)
Side note: This song is played dirtily and gritty, feel free to strum, pick, jam however you like (:

Intro
e---------------------|
B---------------------|
G---------------------|
D---------------------|
A---------------------|
E--0-0-/12-0-0-11h12--|

[1]Well I got...
(E7)
e------0-2-0----------------|
B------0-2-0----------------|
G-1----0-2-0----------------|
D-0-------------------------| x3
A-2-------------------------|
E---------------------------|

[2]Baby baby baby...                              Well baby baby baby, crazy blues...
                                               (B7) (A7) (E7) (B7)
e----------------------------------------------2----0---------2------------------|
B----------------------------------------------0----2---------0------------------|
G----------------------------------------------2----0----1----2------------------|
D-2-2--4-4--5-5--4-4-x2------------------------1----2----0----1------------------|
A---------------------2-2--4-4--5-5--4-4-x2----2---------2----2------------------|
E--------------------------------------------------------------------------------|
(The riffs are technically A7 to E7, just played in a bluesy manner. You can play the 
majority of the song like
that, besides the occasional chord strumming)

Repeat both 1 and 2 again, and here comes the fun part...(if you want, you can just jam 
in the pentatonic scales
of E and A.)
[3]Hell yeeaahhh  (Strike and palm mute)           (B7) (A7) (E7)
e-0-------0------7-------2---------------7-----------------------------------------------------|
B-0--x10--0--x9--8--x15--2---------------8--x15------------------------------------------------|
G-4-------3--------------2---------------------------------------------------------------------|
D------------------------2---------------------------------------------------------------------|
A------------------------2---------------------------------------------------------------------|
E------------------------2---------------------------------------------------------------------|

Repeat 1, then play 2 quietly and neatly, ending it loudly again. Play the first part of 
3 for 16 counts, then
play the beginning of two, skip the second part of 2, and then play the chord 
progression, quiet . Finally,
arpeggio the B7 note...

WE AIN'T DONE YET
[4]
e-0-------0---------------------------------------------------------------|
B-0--x10--0--x10----------------------------------------------------------|
G-4------/7---------------------------------------------------------------|
D-------------------------------------------------------------------------|
A-------------------------------------------------------------------------|
E-------------------------------------------------------------------------|

After this, just play 2, 1, and 2 again with some of 3 thrown in there. Then, just end 
on any cool, bluesy note,
chord, riff, lick, or whatever-the-hell else you wanna throw in there!

I recommend playing in the E and A scales freely rather than playing this exactly, but 
this is a good way to
start. Good luck!
Добавлено: 12.08.2015
Другие материалы по этой песне:
  • Аккорды и текст

Страница создана 12.08.2015
http://primanota.ru/flat-duo-jets/crazy-hazy-kisses-chords.htm
Привет, Гость.
Предлагаем пройти революционный курс по гитаре.
Подарок от PrimaNota.Ru, забирай!