PrimaNota.ru - самый крупный в мире бесплатный архив песенных текстов, аккордов, табулатур и нот


Fläsket Brinner - Gånglåten - таба, видео

Регистрация Запомнить меня
Войти через:  Facebook Google Twitter Vk Yandex Mail.ru

Fläsket Brinner - Gånglåten - таба, видео

Печатать
Просмотров: 88
Уроки эстрадного вокала в Санкт-Петербурге
    |--------------------2-2-3-5-2-0---0-2-0
    |--3---3-3-3--3--3-0-------------3------
    |---------------------------------------
    |--------------------0-0-0-0-0----------
    |--2---2-2-2--3--2-0-----------0-0-0-0-0
    |---------------------------------------

    |--------------------2-2-3-5-2-0---0-2-0
    |--3---3-3-3--3--3-0-------------3------
    |---------------------------------------
    |--------------------0-0-0-0-0----------
    |--2---2-2-2--3--2-0-----------0-0-0-0-0
    |---------------------------------------

    |--------------------2-2-3-5-2-0---0-2-0
    |--3---3-3-3--3--3-0-------------3------
    |---------------------------------------
    |--------------------0-0-0-0-0----------
    |--2---2-2-2--3--2-0-----------0-0-0-0-0
    |---------------------------------------

    |--------------------2-2-3-5-2-0---0-2-0
    |--3---3-3-3--3--3-0-------------3------
    |---------------------------------------
    |--------------------0-0-0-0-0----------
    |--2---2-2-2--3--2-0-----------0-0-0-0-0
    |---------------------------------------
Добавлено: 02.06.2016
Другие материалы по этой песне:
  • Аккорды и текст

Страница создана 02.06.2016
http://primanota.ru/flasket-brinner/ganglaten-chords.htm
Привет, Гость.
Предлагаем пройти революционный курс по гитаре.
Подарок от PrimaNota.Ru, забирай!