PrimaNota.ru - самый крупный в мире бесплатный архив песенных текстов, аккордов, табулатур и нот


Flashlight O - Holding - таба, видео

Регистрация Запомнить меня
Войти через:  Facebook Google Twitter Vk Yandex Mail.ru

Flashlight O - Holding - таба, видео

Печатать
Просмотров: 101
-------------------------------------------------------------------------------
                             Holding - Flashlight O
-------------------------------------------------------------------------------

Tuning: Standard

the amount of strums are not exact

e|---------------------------------------------------------------------------|
B|---------------------------------------------------------------------------|
G|---------------------------------------------------------------------------|
D|---------------------------------------------------------------------------|
A|------------------2-2-2-2-2-2-2-2-3-3-3-3-3-3-3-3-3-3-3-3-3-3--------------|
E|--3-3-3-3-3-3-3-3----------------------------------------------------------|

e|---------------------------------------------------------------------------|
B|---------------------------------------------------------------------------|
G|---------------------------------------------------------------------------|
D|---------------------------------------------------------------------------|
A|------------------2-2-2-2-2-2-2-2-2-2-2-2-2-2-2-2-2-3-3-3-3-3--------------|
E|--3-3-3-3-3-3-3-3----------------------------------------------------------|

e|---------------------------------------------------------------------------|
B|---------------------------------------------------------------------------|
G|---------------------------------------------------------------------------|
D|--2-2-2-2-2-2-2-2-2-2-2-2--------------------------------------------------|
A|--3-3-3-3-3-3-3-3-3-3-3-3--------------------------------------------------|
E|---------------------------------------------------------------------------|

e|---------------------------------------------------------------------------|
B|---------------------------------------------------------------------------|
G|---------------------------------------------------------------------------|
D|---------------------------------------------------------------------------|
A|------------------2-2-2-2-2-2-2-2-3-3-3-3-3-3-3-3-3-3-3-3-3-3--------------|
E|--3-3-3-3-3-3-3-3----------------------------------------------------------|

e|---------------------------------------------------------------------------|
B|---------------------------------------------------------------------------|
G|---------------------------------------------------------------------------|
D|---------------------------------------------------------------------------|
A|--3-3-3-3-3-3-3-3-3-3-3-3-3-3-3-3-3-3-3-3-3-3-3-3-3-3-3--------------------|
E|---------------------------------------------------------------------------|

e|---------------------------------------------------------------------------|
B|---------------------------------------------------------------------------|
G|---------------------------------------------------------------------------|
D|---------------------------------------------------------------------------|
A|------------------2-2-2-2-2-2-2-2-3-3-3-3-3-3-3-3-3-3-3-3-3-3--------------|
E|--3-3-3-3-3-3-3-3----------------------------------------------------------|

e|---------------------------------------------------------------------------|
B|---------------------------------------------------------------------------|
G|---------------------------------------------------------------------------|
D|---------------------------------------------------------------------------|
A|--3-3-3-3-3-3-3-3-3-3-3-3-3-3-3-3-3-3-3-3-3-3-3-3-3-3-3--------------------|
E|---------------------------------------------------------------------------|

e|---------------------------------------------------------------------------|
B|---------------------------------------------------------------------------|
G|---------------------------------------------------------------------------|
D|---------------------------------------------------------------------------|
A|------------------2-2-2-2-2-2-2-2-3-3-3-3-3-3-3-3-3-3-3-3-3-3--------------|
E|--3-3-3-3-3-3-3-3----------------------------------------------------------|

e|---------------------------------------------------------------------------|
B|-----------3-3-3-3-3-------------------------------------------------------|
G|-----------4-4-4-4-4-------------------------------------------------------|
D|-----------4-4-4-4-4-2-2-2-2-2-2-------------------------------------------|
A|-2-2-2-2-2-2-2-2-2-2-3-3-3-3-3-3-------------------------------------------|  2x
E|-3-3-3-3-3-----------------------------------------------------------------|

e|---------------------------------------------------------------------------|
B|---------------------------------------------------------------------------|
G|---------------------------------------------------------------------------|
D|--2-2-2-2-2-2-2-2-2-2-2-2--------------------------------------------------|
A|--3-3-3-3-3-3-3-3-3-3-3-3--------------------------------------------------|
E|---------------------------------------------------------------------------|

e|---------------------------------------------------------------------------|
B|---------------3-----------------------------------------------------------|
G|---------------4-----------------------------------------------------------|
D|--4-5-4-2---2--4-4---------------------------------------------------------|
A|----------3-3--2-----------------------------------------------------------| A few times
E|---------------------------------------------------------------------------|

e|---------------------------------------------------------------------------|
B|-------------------------------3-------------------------------------------|
G|-------------------------------4-------------------------------------------|
D|-------2-2--2-2-2--2-2-2-2-----4-------------------------------------------|
A|-------3-3--3-3-3--3-3-3-3--2--2-------------------------------------------|  7x
E|----------------------------3----------------------------------------------|

e|---------------------------------------------------------------------------|
B|---------------------------------------------------------------------------|
G|---------------------------------------------------------------------------|
D|--2-2-2-2-2-2-2-2-2--------------------------------------------------------|
A|--3-3-3-3-3-3-3-3-3--------------------------------------------------------|
E|---------------------------------------------------------------------------|


e|---------------------------------------------------------------------------|
B|---------------------------------------------------------------------------|
G|---------------------------------------------------------------------------|
D|----------------2-2-2-2-2-2-2----------------------------------------------|
A|--2-2-2-2-2-2-2-3-3-3-3-3-3-3----------------------------------------------| 2x
E|--3-3-3-3-3-3-3------------------------------------------------------------|

e|---------------------------------------------------------------------------|
B|-------------------------------3-------------------------------------------|
G|-------------------------------4-------------------------------------------|
D|-------2-2--2-2-2--2-2-2-2-----4-------------------------------------------|
A|-------3-3--3-3-3--3-3-3-3--2--2-------------------------------------------| 3x
E|----------------------------3----------------------------------------------|

e|---------------------------------------------------------------------------|
B|---------------------------------------------------------------------------|
G|---------------------------------------------------------------------------|
D|--2-2-2-2-2-2-2-2-2--------------------------------------------------------|
A|--3-3-3-3-3-3-3-3-3--------------------------------------------------------|
E|---------------------------------------------------------------------------|

e|---------------------------------------------------------------------------|
B|---------------------------------------------------------------------------|
G|---------------------------------------------------------------------------|
D|----------------2-2-2-2-2-2-2----------------------------------------------|
A|--2-2-2-2-2-2-2-3-3-3-3-3-3-3----------------------------------------------| 2x
E|--3-3-3-3-3-3-3------------------------------------------------------------|

if I want to describe the old barn
i have to start with being in the world
with no center, it is and I am
small carry small weight
barn holding space
so i hold my breath
i see outside, now i don't see that at all
does the window side divide (hello hello)
does the world stretch that wide (for you for you)
I love so i offer my (hello hello)
i love so i offer it now (to you to you to you)
cough and wipe my hand
aware for a moment again
arms touching air
now feel the space beneath my chair
geometry lending
i try to mend you
same sun reflection
in the glass, in the river
inverse barn shape
bare branches baring weight
i tried to hold
Добавлено: 04.07.2015
Другие материалы по этой песне:
  • Аккорды и текст

Страница создана 04.07.2015
http://primanota.ru/flashlight-o/holding-chords.htm
Привет, Гость.
Предлагаем пройти революционный курс по гитаре.
Подарок от PrimaNota.Ru, забирай!