PrimaNota.ru - самый крупный в мире бесплатный архив песенных текстов, аккордов, табулатур и нот


Flannel Graph - Five Foot Three - таба, видео

Регистрация Запомнить меня
Войти через:  Facebook Google Twitter Vk Yandex Mail.ru

Flannel Graph - Five Foot Three - таба, видео

Печатать
Просмотров: 26
-------------------------------------------------------------------------------
                             Five Foot Three - Flannel Graph
-------------------------------------------------------------------------------
Tabbed by:kabbott622
E-mail:kabbott622@gmail.com

Tuning:Standard


e|---------------------------------------------------------------------------------------------|
B|---------------------------------------------------------------------------------------------|
G|-------0------0-----0-----0-----0-----0-----0-----0-----0-----0------0------0------0------0--|
D|-----0------0-----0-----0-----0-----0-----0-----0-----0-----0------0------0------0------0----|   
A|----------------3-----3-----7-----9-----5-----5-----5-----5-----12-----12-----12-----12------|
E|--3-------3----------------------------------------------------------------------------------|


e|---------------------------------------------------------------------------------------------|
B|---------------------------------------------------------------------------------------------|
G|-------0------0-----0-----0-----0-----0-----0-----0-----0-----0------0------0------0------0--|
D|-----0------0-----0-----0-----0-----0-----0-----0-----0-----0------0------0------0------0----|   
A|----------------3-----3-----7-----7-----5-----5-----5-----5------5------5------5------5------|
E|--3-------3----------------------------------------------------------------------------------|


e|---------------------------------------------------------------------------------------------|
B|---------------------------------------------------------------------------------------------|
G|-------0------0-----0-----0-----0-----0-----0-----0-----0-----0------0------0------0------0--|
D|-----0------0-----0-----0-----0-----0-----0-----0-----0-----0------0------0------0------0----|   
A|----------------3-----3-----7-----7-----5-----5-----5-----5-----12-----12-----12-----12------|
E|--3-------3----------------------------------------------------------------------------------|


e|---------------------------------------------------------------------------------------------|
B|---------------------------------------------------------------------------------------------|
G|-------0------0-----0-----0-----0-----0-----0-----0-----0-----0------0------0------0------0--|
D|-----0------0-----0-----0-----0-----0-----0-----0-----0-----0------0------0------0------0----|   
A|----------------3-----3-----7-----7-----5-----5-----5-----5------5------5------5------5------|
E|--3-------3----------------------------------------------------------------------------------|


e|---------------------------------------------------------------------------------------------|
B|---------------------------------------------------------------------------------------------|
G|-------0------0-----0-----0-----0-----0-----0-----0-----0-----0------0------0------0------0--|
D|-----0------0-----0-----0-----0-----0-----0-----0-----0-----0------0------0------0------0----|   
A|----------------3-----3-----7-----7-----5-----5-----5-----5-----12-----12-----12-----12------|
E|--3-------3----------------------------------------------------------------------------------|


e|---------------------------------------------------------------------------------------------|
B|---------------------------------------------------------------------------------------------|
G|-------0------0-----0-----0-----0-----0-----0-----0-----0-----0------0------0------0------0--|
D|-----0------0-----0-----0-----0-----0-----0-----0-----0-----0------0------0------0------0----|   
A|----------------3-----3-----7-----9-----5-----5-----5-----5------5------5------5------5------|
E|--3-------3----------------------------------------------------------------------------------|


e|---------------------------------------------------------------------------------------------|
B|---------------------------------------------------------------------------------------------|
G|-------0------0-----0-----0-----0-----0-----0-----0-----0-----0------0------0------0------0--|
D|-----0------0-----0-----0-----0-----0-----0-----0-----0-----0------0------0------0------0----|   
A|----------------3-----3-----7-----7-----5-----5-----5-----5------5------5------5------5------|
E|--3-------3----------------------------------------------------------------------------------|


e|---------------------------------------------------------------------------------------------|
B|---------------------------------------------------------------------------------------------|
G|-------0------0-----0-----0-----0-----0-----0-----0-----0-----0------0------0------0------0--|
D|-----0------0-----0-----0-----0-----0-----0-----0-----0-----0------0------0------0------0----|   
A|----------------3-----3-----7-----7-----5-----5-----5-----5-----12-----12-----12-----12------|
E|--3-------3----------------------------------------------------------------------------------|


e|---------------------------------------------------------------------------------------------|
B|---------------------------------------------------------------------------------------------|
G|-------0------0-----0-----0-----0-----0-----0-----0-----0-----0------0------0------0------0--|
D|-----0------0-----0-----0-----0-----0-----0-----0-----0-----0------0------0------0------0----|   
A|----------------3-----3-----7-----7-----5-----5-----7-----7------5------5------5------5------|
E|--3-------3----------------------------------------------------------------------------------|


e|---------------------------------------------------------------------------------------------|
B|---------------------------------------------------------------------------------------------|
G|-------0------0-----0-----0-----0-----0-----0-----0-----0-----0------0------0------0------0--|
D|-----0------0-----0-----0-----0-----0-----0-----0-----0-----0------0------0------0------0----|   
A|----------------3-----3-----7-----7-----5-----5-----5-----5-----12-----12-----12-----12------|
E|--3-------3----------------------------------------------------------------------------------|


e|---------------------------------------------------------------------------|
B|---------------------------------------------------------------------------|
G|---------------------------------------------------------------------------|
D|---------------------------------------------------------------------------|     
A|-7-----5-----3------------7-----5------3-----------------------------------|
E|-------------------3-------------------------3-----------------------------|


e|---------------------------------------------------------------------------|
B|---------------------------------------------------------------------------|
G|-----0-----0------0------0------0------0------0--------0-------------------|     
D|---0-----0------0------0------0------0------0--------0---------------------|
A|-7-----7------5------5------3------3---------------------------------------|
E|------------------------------------------3------3-------------------------|


e|-------------------------------------------------------------------------------------|
B|-------------------------------------------------------------------------------------|
G|-----0-----0------0------0-------0------0------0------0------0------0------0------0--|
D|---0-----0------0------0-------0------0------0------0------0------0------0------0----|     
A|-7-----7------5------5-------3------3------3------3------3------3------3------3------|
E|-------------------------------------------------------------------------------------|


e|---------------------------------------------------------------------------------------------|
B|---------------------------------------------------------------------------------------------|
G|-------0------0-----0-----0-----0-----0-----0-----0-----0-----0------0------0------0------0--|
D|-----0------0-----0-----0-----0-----0-----0-----0-----0-----0------0------0------0------0----|   
A|----------------3-----3-----7-----9-----5-----5-----5-----5-----12-----12-----12-----12------|
E|--3-------3----------------------------------------------------------------------------------|


e|---------------------------------------------------------------------------------------------|
B|---------------------------------------------------------------------------------------------|
G|-------0------0-----0-----0-----0-----0-----0-----0-----0-----0------0------0------0------0--|
D|-----0------0-----0-----0-----0-----0-----0-----0-----0-----0------0------0------0------0----|   
A|----------------3-----3-----7-----7-----5-----5-----5-----5------5------5------5------5------|
E|--3-------3----------------------------------------------------------------------------------|


e|---------------------------------------------------------------------------------------------|
B|---------------------------------------------------------------------------------------------|
G|-------0------0-----0-----0-----0-----0-----0-----0-----0-----0------0------0------0------0--|
D|-----0------0-----0-----0-----0-----0-----0-----0-----0-----0------0------0------0------0----|   
A|----------------3-----3-----7-----7-----5-----5-----5-----5------5------5------5------5------|
E|--3-------3----------------------------------------------------------------------------------|


e|---------------------------------------------------------------------------------------------|
B|---------------------------------------------------------------------------------------------|
G|-------0------0-----0-----0-----0-----0-----0-----0-----0-----0------0------0------0------0--|
D|-----0------0-----0-----0-----0-----0-----0-----0-----0-----0------0------0------0------0----|   
A|----------------3-----3-----7-----7-----5-----5-----5-----5-----12-----12-----12-----12------|
E|--3-------3----------------------------------------------------------------------------------|


e|---------------------------------------------------------------------------------------------|
B|---------------------------------------------------------------------------------------------|
G|-------0------0-----0-----0-----0-----0-----0-----0-----0-----0------0------0------0------0--|
D|-----0------0-----0-----0-----0-----0-----0-----0-----0-----0------0------0------0------0----|   
A|----------------3-----3-----7-----7-----5-----5-----5-----5-----12-----12-----12-----12------|
E|--3-------3----------------------------------------------------------------------------------|


e|---------------------------------------------------------------------------|
B|---------------------------------------------------------------------------|
G|-----0-----0------0------0------0------0------0--------0-------------------|     
D|---0-----0------0------0------0------0------0--------0---------------------|
A|-7-----7------5------5------3------3---------------------------------------|
E|------------------------------------------3------3-------------------------|


e|---------------------------------------------------------------------------|
B|---------------------------------------------------------------------------|
G|-----0-----0------0------0------0------0------0--------0-------------------|     
D|---0-----0------0------0------0------0------0--------0---------------------|
A|-7-----7------5------5------3------3---------------------------------------|
E|------------------------------------------3------3-------------------------|


e|---------------------------------------------------------------------------|
B|---------------------------------------------------------------------------|
G|-----0-----0------0------0------0------0------0--------0-------------------|     
D|---0-----0------0------0------0------0------0--------0---------------------|
A|-7-----7------5------5------3------3---------------------------------------|
E|------------------------------------------3------3-------------------------|


e|-------------------------------------------------------------------------|
B|-------------------------------------------------------------------------|
G|-----0-----0------0------0------0------0-----0------0--------------------|     
D|---0-----0------0------0------0------0-----0------0----------------------|
A|-7-----7------5------5------3------3-----3------3------------------------|
E|-------------------------------------------------------------------------|


e|-------------------------------------------------------------------------|
B|-------------------------------------------------------------------------|
G|-----0-----0------0------0------0------0-----0------0--------------------|     
D|---0-----0------0------0------0------0-----0------0----------------------|
A|-7-----7------5------5------3------3-----3------3------------------------|
E|-------------------------------------------------------------------------|


e|-------------------------------------------------------------------------|
B|-------------------------------------------------------------------------|
G|-0-----0------0----------------------------------------------------------|     
D|-0-----0------0----------------------------------------------------------|
A|-7-----5-----------------------------------------------------------------|
E|--------------3----------------------------------------------------------|


************************************

| /   slide up
| \   slide down
| h   hammer-on
| p   pull-off
| ~   vibrato
| +   harmonic
| x   Mute note
| b   Bend
| pb  Pre-bend
| br  Bend release
| pbr Pre-bend release
| brb Bend release bend

************************************
Добавлено: 15.12.2015
Другие материалы по этой песне:
  • Аккорды и текст

Страница создана 15.12.2015
http://primanota.ru/flannel-graph/five-foot-three-chords.htm
Привет, Гость.
Предлагаем пройти революционный курс по гитаре.
Подарок от PrimaNota.Ru, забирай!