PrimaNota.ru - самый крупный в мире бесплатный архив песенных текстов, аккордов, табулатур и нот


Flaming Lips - Your Bats - бас-таба, видео

Регистрация Запомнить меня
Войти через:  Facebook Google Twitter Vk Yandex Mail.ru

Flaming Lips - Your Bats - бас-таба, видео

Печатать
Просмотров: 157
Уроки эстрадного вокала в Санкт-Петербурге
Your Bats

(0:04-0:24)
G|----------------|----------------|----------------|----------------|
D|----------------|----------------|----------------|----------------|
A|--/7~~~---2/4---|--7\\\----2/4---|--7~~~----2/4---|--7~~~----2/4---|
E|----------------|----------------|----------------|----------------|

REST until after "Saw them two lingering" (around 0:48)

Couldn't be a rabbit, flying like usual
G|----------------|------------------------|
D|----------------|------------------------|
A|--7~~~----2/4---|--7~~~--7/11\\-----2/4--|
E|----------------|------------------------|

Couldn't be the habit, you saw them too
G|----------------|----------------------|
D|----------------|----------------------|
A|--7~~~----2/4---|--7~~~--7/9-----2/4---|
E|----------------|----------------------|

Oh, every evening, so it goes
G|----------------|----------------|
D|----------------|----------------|
A|--7~~~----2/4---|--7~~~----2/4---|
E|----------------|----------------|

Oh, into the nightmare, sun rising black instead of gold
G|----------------|----------------|
D|----------------|----------------|
A|--7~~~----2/4---|--7\\\----2/4---|
E|----------------|----------------|

Now...or never
G|----------------|----------------|
D|----------------|----------------|
A|--7~~~----2/4---|----------------|
E|----------------|----------------|

(1:41-1:46)
G|----------11p9--|--------9h11p9--|
D|--11~~----------|--11~~----------|
A|----------------|----------------|
E|----------------|----------------|

  Saw your night-   -mare    bat
G|--------9h11p9--|--------9h11p9--|
D|--11~~----------|--11~~----------|
A|----------------|----------------|
E|----------------|----------------|

    Go     by        my     win-      -dow
G|--------9h11p9--|--------9h11p9--|--------|
D|--11~~----------|--11~~----------|--11~---|
A|----------------|----------------|--------|
E|----------------|----------------|--------|

END

| /  slide up
| \  slide down
| h  hammer-on
| p  pull-off
| ~  vibrato
| +  harmonic
| x  Mute note
Добавлено: 02.05.2012
Другие материалы по этой песне:
  • Аккорды и текст

Страница создана 02.05.2012
http://primanota.ru/flaming-lips/your-bats-chords.htm
Привет, Гость.
Предлагаем пройти революционный курс по гитаре.
Подарок от PrimaNota.Ru, забирай!