PrimaNota.ru - самый крупный в мире бесплатный архив песенных текстов, аккордов, табулатур и нот


Flaming Lips - There You Are - текст песни, таба, видео

Регистрация Запомнить меня
Войти через:  Facebook Google Twitter Vk Yandex Mail.ru

Flaming Lips - There You Are - текст песни, таба, видео

Печатать
Просмотров: 133
"There You Are"
by The Flaming Lips
from the album "The Day They Shot A Hole In The Jesus Egg"

Tabbed by Stonebeard

OK. It took me two years (much longer than it should have) but I tabbed it.
This is the original version from "In A Priest-Driven Ambulance," not the outtake from 
second disc of "Jesus Egg."

Hey, Everyone. The Lips rock. Tab them more.

Here goes:

Fade In...

Intro/Verse:

This is very basic and there will obviously be a few other notes played while 
this. But this is a good guideline to go by. Since there is no indication of time or measure in 
tab, it is a good idea to have listened to the song in order to follow along and learn.

e -----------------------------------------------------------------------|
B -----------------------------------------------------------------------|
G -4---2-------2------2---2---2-4----2---0------2-2----2------2---2---2--|
D -0-------0--------------------0-----------------0----------------------|
A -0-0---0---0---0--0---0---0---0--0---0---0--0---0--0---0--0---0---0----|
E -----------------------------------------------------------------------|

e-----------------------------------------------------------7----------------|
B-------------------------------------------------------6--------------------|
G-4---2---2---4---4---2---2---4---2---4---6---7-------7---7---------7---7-7--|
D-0-----------------------------------------------------------------------0--|
A-0-0---0---0---0---0---0---0---0---0---0---0---0--0-----------0--0---0---0--|
E----------------------------------------------------------------------------|


e----------------------------------------------------------------------------|
B----------------------------------------------------------------------------|
G-------7---7---6--7---6---7---4--4----4---4--4----4---4---4---4---0---2-2---|
D---------------0-----------------0-----------0--------------------------0---|
A-0---0---0---0-0----0---0--------0--0---0----0--0---0---0---0---0---0---0---|
E----------------------------------------------------------------------------|


e--------------------------------------------------------|
B--------------------------------------------------------|
G---2---2---2---2---0---2-2----2---2-2----2---2---2---2--|
D-------------------------0----------0-------------------|
A-0---0---0---0---0---0---0--0---0---0--0---0---0---0----|
E--------------------------------------------------------|

That section is repeated throughout the three verses with possible minor variations.

After the third verse, the song goes into an outro. One guitar plays chords while the 
solos over it.

The first guitar's chord progression is:

 Bminor / F#minor / A / Bminor / G / D / F#

The solo is very simple but it took me forever to figure out because it is rather faint.

Legend:

~ indicates vibrato (not sure if it's actually present, but it makes the solo sound 
good)
/ indicates slide up
\ indicates slide down
h indicates hammer-on
p indicates pull-off
18b19r18 indicates bend the 18th fret until it matches pitch with the 19th fret 
then release the bend to the pitch of the 18th fret unbended

e--------------------------------------------------------------------------|
B--------------------------------------------------------------------------|
G--4~--4--4/6-6~--6--6/9-9~--9--12\11-11~--11--14~--14-12\11-11~-11--9/11--|
D--------------------------------------------------------------------------|
A--------------------------------------------------------------------------|
E--------------------------------------------------------------------------|

e-------------------------|
B-------------------------|
G--11~--11--9/11-11~--11--|   Repeat once
D-------------------------|
A-------------------------|
E-------------------------|

Then the final part of the solo:

e---------------------------------------------------------------------------|
B---------------------------------------------------------------------------|
G--14--12h14p12-12--11--11h12p11-11--9---11--9--4--6--7--9--16--18b19r18-16-|
D---------------------------------------------------------------------------|
A---------------------------------------------------------------------------|
E---------------------------------------------------------------------------|

e------------------------|
B------------------------|
G--14~--18b19r18-16--14~-|
D------------------------|
A------------------------|
E------------------------|

Fade out

That's it. Have a blast.
Добавлено: 08.07.2012
Другие материалы по этой песне:
  • Аккорды и текст

Страница создана 30.03.2012
http://primanota.ru/flaming-lips/there-you-are-chords.htm
Привет, Гость.
Предлагаем пройти революционный курс по гитаре.
Подарок от PrimaNota.Ru, забирай!