PrimaNota.ru - самый крупный в мире бесплатный архив песенных текстов, аккордов, табулатур и нот


Flaming Lips - The Wizard Turns On - бас-таба, видео

Регистрация Запомнить меня
Войти через:  Facebook Google Twitter Vk Yandex Mail.ru

Flaming Lips - The Wizard Turns On - бас-таба, видео

Печатать
Просмотров: 93
Song: The Wizard Turns On
Artist: The Flaming Lips 
Album: At War With the Mystics
Tabbed by: Kris Pender 


Riff 1  
G-|--------------|-----------|-----------|
D-|--------------|-----------|-----------|
A-|-7----7-7-7-7-|---7-7-7-7-|---7-7-7-7-|
E-|--------------|-----------|-----------|

Riff 2
|----------------|----------------|----------------|----------------|
|----------------|----------------|----------------|----------------|
|----------------|-2---4-5--------|----------------|-2---4-5--------|
|-0---2---3---5--|----------------|-0---2---3---5--|----------------|

|----------------|----------------|----------------|----------------|
|----------------|----------------|----------------|----------------|
|----------------|-2---4-5--------|----------------|-2---4-5--------|
|-0---2---3---5--|----------------|-0---2---3---5--|----------------|

|----------------|----------------|
|----------------|----------------|
|----------------|-2--------------|
|-0---2---3---5--|----------------|


Fill 1
|----------2-/4--|
|-4-4--2-4-------|
|----------------|
|----------------|

Fill 2 (with Echo/Reverb)

|-----------4--|
|-4---4-2-4----|
|--------------|
|--------------|


Progression:

Riff 1 x6
Riff 2
Fill 1
Riff 1 x4
Riff 2
Fill 2 (w/ Echo/Reverb)
Добавлено: 09.07.2012
Другие материалы по этой песне:
  • Аккорды и текст

Страница создана 09.07.2012
http://primanota.ru/flaming-lips/the-wizard-turns-on-chords.htm
Привет, Гость.
Предлагаем пройти революционный курс по гитаре.
Подарок от PrimaNota.Ru, забирай!