PrimaNota.ru - самый крупный в мире бесплатный архив песенных текстов, аккордов, табулатур и нот


Flaming Lips - The Sparrow Looks Up At The Machine - текст песни, бас-таба, видео

Регистрация Запомнить меня
Войти через:  Facebook Google Twitter Vk Yandex Mail.ru

Flaming Lips - The Sparrow Looks Up At The Machine - текст песни, бас-таба, видео

Печатать
Просмотров: 98
The Flaming Lips
The Sparrow Looks Up at the Machine - Bass
Embryonic

This basic pattern repeats over and over throughout the song, with some variations thrown in.
You can listen to the song to hear the variations, or you can make them up as you go. 

Starts at 0:10
G|-----------------|-----------------|-----------------|-----------------|
D|---------7-------|---------7-------|---------7-------|---------7-------|
A|-----------------|-----------------|-----------------|-----------------|
E|-5-5---5---5---5-|-5-5---5---5---5-|-5-5---5---5---5-|-5-5---5---5---5-|

G|-----------------|-----------------|-----------------|-----------------|
D|---------7-------|---------7-------|---------7-------|------------5----|
A|-----------------|-----------------|-----------------|---5--7--8-------|
E|-5-5---5---5---5-|-5-5---5---5---5-|-5-5---5---5---5-|-8---------------|

G|-----------------|-----------------|-----------------|-----------------|
D|---------7-------|---------7-------|---------7-------|---------7-------|
A|-----------------|-----------------|-----------------|-----------------|
E|-5-5---5---5---5-|-5-5---5---5---5-|-5-5---5---5---5-|-5-5---5---5---5-|

G|-----------------|-----------------|-----------------|-----------------|
D|---------7-------|---------7-------|---------7-------|------------5-7--|
A|-----------------|-----------------|-----------------|---5--7--8-------|
E|-5-5---5---5---5-|-5-5---5---5---5-|-5-5---5---5---5-|-8---------------|

At 2:13, play this note and hold it for eight bars.
G|---|
D|---|
A|-7-|
E|---|

Then go back to the main pattern until the end of the song.
Добавлено: 19.11.2013
Другие материалы по этой песне:
  • Аккорды и текст

Страница создана 19.11.2013
http://primanota.ru/flaming-lips/the-sparrow-looks-up-at-the-machine-chords.htm
Привет, Гость.
Предлагаем пройти революционный курс по гитаре.
Подарок от PrimaNota.Ru, забирай!