PrimaNota.ru - самый крупный в мире бесплатный архив песенных текстов, аккордов, табулатур и нот


Flaming Lips - Sagittarius Silver Announcement - бас-таба, видео

Регистрация Запомнить меня
Войти через:  Facebook Google Twitter Vk Yandex Mail.ru

Flaming Lips - Sagittarius Silver Announcement - бас-таба, видео

Печатать
Просмотров: 108
One of the stranger songs off of Embryonic, but the bass line is pretty catchy.
The bass line is repeated throughout the entire song. 

G:-----------------------------------| 
D:--------9------------7-9p7h9p7-----| 
A:-7--7-7---7-7-7--7-9---------------|
E:-----------------------------------| 

At 1:10, this is played instead of the normal bass line for some reason.

G:-----------------------------------| 
D:--------9----------9---9-----------| 
A:-7--7-7---7-7-7--7---7-------------|
E:-----------------------------------| 
Добавлено: 28.07.2012
Другие материалы по этой песне:
  • Аккорды и текст

Страница создана 28.07.2012
http://primanota.ru/flaming-lips/sagittarius-silver-announcement-chords.htm
Привет, Гость.
Предлагаем пройти революционный курс по гитаре.
Подарок от PrimaNota.Ru, забирай!