PrimaNota.ru - самый крупный в мире бесплатный архив песенных текстов, аккордов, табулатур и нот


Flaming Lips - Okay Ill Admit That I Really Dont Understand - бас-таба, видео

Регистрация Запомнить меня
Войти через:  Facebook Google Twitter Vk Yandex Mail.ru

Flaming Lips - Okay Ill Admit That I Really Dont Understand - бас-таба, видео

Печатать
Просмотров: 120
-------------------------------------------------------------------------------
			     Okay I'll Admit That I Really Don't Understand (Flaming Lips)
-------------------------------------------------------------------------------

Tabbed By : Matt Sokol
e-mail: ugsokol@gmail.com

This goes up to the point where the bass and drums sync up. The 
rest of the song is pretty much the same bassline with a couple of
variations, usually at the end of each four measure phrase.
    
G||-----4--------0-0--2--2----|-----4--------0-0--2--2----|-----4--------0-0--2--2----|
D||--------4---4-----------4--|--------4---4-----------2--|--------4---4-----------4--|
A||--2------------------------|--2------------------------|--2------------------------|
E||---------------------------|---------------------------|---------------------------|

 
G||-----4--------0-0--2-------|-----4--------0-0--2--2----|-----4--------0-0--2--2----|
D||--------4---4---------4----|--------4---4-----------4--|--------4---4-----------2--|
A||--2---------------------3--|--2------------------------|--2------------------------|
E||---------------------------|---------------------------|---------------------------|

           
G||-----4--------0-0--2--2-3--|--4-----------0---0------|------2-------0---||
D||--------4---4--------------|--------4---4-------4----|----------2-------||
A||--2------------------------|-----2-------------------|--2---------------||
E||---------------------------|-------------------------|------------------||

Any corrections or comments are always welcome via email.
Добавлено: 14.03.2012
Другие материалы по этой песне:
  • Аккорды и текст

Страница создана 14.03.2012
http://primanota.ru/flaming-lips/okay-ill-admit-that-i-really-dont-understand-chords.htm
Привет, Гость.
Предлагаем пройти революционный курс по гитаре.
Подарок от PrimaNota.Ru, забирай!