PrimaNota.ru - самый крупный в мире бесплатный архив песенных текстов, аккордов, табулатур и нот


Flaming Lips - My Cosmic Autumn Rebellion - аккорды и текст, таба, видео

Регистрация Запомнить меня
Войти через:  Facebook Google Twitter Vk Yandex Mail.ru

Flaming Lips - My Cosmic Autumn Rebellion - аккорды и текст, таба, видео

Печатать
Просмотров: 135
My Cosmic Autumn Rebellion
Flaming Lips
My Cosmic Autumn Rebellion (The Inner Life As Blazing Shield Of Defiance And Optimism As 
Spear Of Action)
by The Flaming Lips

Songs roughly right, I'm sure a few chords are out but I'm not sure which ones.
If you can work them out PM me :)

Intro: Bb Gm Bb Gm

Bb
They tell us, "Autumn's a-coming

Gm
And soon everything around us will die

Bb
Only a fool believes that he is

F
Different from the birds in the sky

Gm
All those birds go chasing

Dm
Some better, sunny days

Gm
You can't hear them singing

Cm                            F
Because they've all gone away"


Bb
But this one bird didn't leave you

Cm
It stayed through the wintertime

Bb
You can't hear it sing

Cm
But you can hear it as it flies

Gm
So don't you believe them

Dm
They'll destroy you with their lies

Cm
They only see the obvious

F                                              Bb
They see the sun go down but they don't see it rise


Break: Am Cm     Dm Bb Dm Bb

Then the guitar part, with fuzz.

e|---------------------------------------------------------|
B|---------------------------------------------------------|
G|---------------------------------------------------------|
D|-------0---------0---------0-----1--------1---------1-0--|
A|---1-3---1-3-1-3---1-3-1-3---1-3---1-3-1-3--1-3-1-3----3-|
E|---------------------------------------------------------|

e|-------------------------------------------------------------|
B|-------------------------------------------------------------|
G|-------------------------------------------------------------|
D|-------0---------0---------0--------1---------1---------1-0--|
A|---1-3---1-3-1-3---1-3-1-3--3-1-1-3---1-3-1-3---1-3-1-3----3-|
E|-------------------------------------------------------------|

G Dm Cm Bb


Bb
This one bird didn't leave you

Cm
You can hear it as it flies

Bb
It's not very loud

Dm
But you can hear it if you try


Gm
So don't you believe them

Dm
Yes, it's true, someday everything dies

Cm
We won't let that defeat us

Bb
We can't hear him sing but we can hear it as it flies


Guitar part again

End on Dm Bb Dm Bb
Добавлено: 01.04.2012
Другие материалы по этой песне:
  • Аккорды и текст

Страница создана 01.04.2012
http://primanota.ru/flaming-lips/my-cosmic-autumn-rebellion-chords.htm
Привет, Гость.
Предлагаем пройти революционный курс по гитаре.
Подарок от PrimaNota.Ru, забирай!