PrimaNota.ru - самый крупный в мире бесплатный архив песенных текстов, аккордов, табулатур и нот


Flaming Lips - Moth In The Incubator - текст песни, таба, бас-таба, видео

Регистрация Запомнить меня
Войти через:  Facebook Google Twitter Vk Yandex Mail.ru

Flaming Lips - Moth In The Incubator - текст песни, таба, бас-таба, видео

Печатать
Просмотров: 140
Авторы: The Flaming Lips

===============================================================
=                    Moth in the Incubator                    =
=-------------------------------------------------------------=
=                     by the Flaming Lips                     =
===============================================================

Dm                G                 Cmaj7
Something in you, it jitters like a moth
Dm        G                         Cmaj7
And I see that your arms are out to God
Dm      G                       Cmaj7
And oh, they kill you when they talk
Dm                       G                     Cmaj7           E
It makes a mountain peak seem little when it's not


e|-8-----10-----12-12-----12---|
B|-----------------------------|
G|-----------------------------|
D|-----------------------------|
A|-----------------------------|
E|-----------------------------|
played throughout this entire middle section
lots of variation


A
Your incubator is so tight
A
Your incubator is so tight
D                A     D          A
I've been born before, I'm pretty used to it
D                              A
Brain-dead is always all there is
A
So embryonic it's all right
A
So embryonic it's all right
D                A     D           A
I've been born before, I'm getting used to it
D                           A          E
Brain-dead is how it always ends


   E                           D
e|-7--9--7-------7--9--7-------7--9--7--9----7--9--7------------|
B|----------9-------------9---------------------------7---------|
G|--------------------------------------------------------------|
D|--------------------------------------------------------------|
A|--------------------------------------------------------------|
E|--------------------------------------------------------------|

   Bm            A             E
e|-7--9--7--12---7--9--7--12---7--9--7-------7--9--7------------|
B|--------------------------------------9-------------9---------|
G|--------------------------------------------------------------|
D|--------------------------------------------------------------|
A|--------------------------------------------------------------|
E|--------------------------------------------------------------|
played with a slide guitar
Добавлено: 21.03.2012
Другие материалы по этой песне:
  • Аккорды и текст

Страница создана 21.03.2012
http://primanota.ru/flaming-lips/moth-in-the-incubator-chords.htm
Привет, Гость.
Предлагаем пройти революционный курс по гитаре.
Подарок от PrimaNota.Ru, забирай!