PrimaNota.ru - самый крупный в мире бесплатный архив песенных текстов, аккордов, табулатур и нот


Flaming Lips - Is David Bowie Dying - бас-таба, видео

Регистрация Запомнить меня
Войти через:  Facebook Google Twitter Vk Yandex Mail.ru

Flaming Lips - Is David Bowie Dying - бас-таба, видео

Печатать
Просмотров: 41
Is David Bowie Dying?

The Flaming Lips with Neon Indian

2011 #2 - The Flaming Lips with Neon Indian '12



0:12

Bass (Michael/Derek):

G--12-12-12---------------------12-12-12--------------|
D------------10-10--10---------------------10-10--10--|
A-----------------------------------------------------|
E-----------------------------------------------------|

G-----------------------------------------|
D--9-9-9---------------9-9-9--------------|
A---------7-7--7--------------7-7--7------|
E-----------------------------------------|


and that's basically the whole song
Добавлено: 03.05.2016
Другие материалы по этой песне:
  • Аккорды и текст

Страница создана 03.05.2016
http://primanota.ru/flaming-lips/is-david-bowie-dying-chords.htm
Привет, Гость.
Предлагаем пройти революционный курс по гитаре.
Подарок от PrimaNota.Ru, забирай!