PrimaNota.ru - самый крупный в мире бесплатный архив песенных текстов, аккордов, табулатур и нот


Flaming Lips - Havent Got A Clue - текст песни, таба, видео

Регистрация Запомнить меня
Войти через:  Facebook Google Twitter Vk Yandex Mail.ru

Flaming Lips - Havent Got A Clue - текст песни, таба, видео

Печатать
Просмотров: 179
Уроки эстрадного вокала в Санкт-Петербурге
Song: Haven't Got a Clue
Artist: The Flaming Lips
Album: At War with the Mystics

Standard Tuning

Verse - use quick down-up-down strokes
   G
E|-3-3-3---3-3-3---3-3-3---3-3-3---3-3-3---3-3-3---3-3-3---3-3-3-|
B|-3-3-3---3-3-3---3-3-3---3-3-3---3-3-3---3-3-3---3-3-3---3-3-3-|
G|-4-4-4---4-4-4---4-4-4---4-4-4---4-4-4---4-4-4---4-4-4---4-4-4-|
D|-5-5-5---5-5-5---5-5-5---5-5-5---5-5-5---5-5-5---5-5-5---5-5-5-|
A|-5-5-5---5-5-5---5-5-5---5-5-5---5-5-5---5-5-5---5-5-5---5-5-5-|
E|-3-3-3---3-3-3---3-3-3---3-3-3---3-3-3---3-3-3---3-3-3---3-3-3-|

   C#                              G#
E|-4-4-4---4-4-4---4-4-4---4-4-4---4-4-4---4-4-4---4-4-4---4-4-4-|
B|-6-6-6---6-6-6---6-6-6---6-6-6---4-4-4---4-4-4---4-4-4---4-4-4-|
G|-6-6-6---6-6-6---6-6-6---6-6-6---5-5-5---5-5-5---5-5-5---5-5-5-|
D|-6-6-6---6-6-6---6-6-6---6-6-6---6-6-6---6-6-6---6-6-6---6-6-6-|
A|-4-4-4---4-4-4---4-4-4---4-4-4---6-6-6---6-6-6---6-6-6---6-6-6-|
E|---------------------------------4-4-4---4-4-4---4-4-4---4-4-4-|

Chorus

   F                               G               G*      G
E|-1-1-1---1-1-1---1-1-1---1-1-1---3-3-3---3-3-3---3-3-3---3-3-3-|
B|-1-1-1---1-1-1---1-1-1---1-1-1---3-3-3---3-3-3---5-5-5---3-3-3-|
G|-2-2-2---2-2-2---2-2-2---2-2-2---4-4-4---4-4-4---4-4-4---4-4-4-|
D|-3-3-3---3-3-3---3-3-3---3-3-3---5-5-5---5-5-5---X-X-X---5-5-5-|
A|-3-3-3---3-3-3---3-3-3---3-3-3---5-5-5---5-5-5---5-5-5---5-5-5-|
E|-1-1-1---1-1-1---1-1-1---1-1-1---3-3-3---3-3-3---3-3-3---3-3-3-|

Listen to the song for breaks/stops. Enjoy!

Tabbed by R. Liddell
Добавлено: 29.04.2012
Другие материалы по этой песне:
  • Аккорды и текст

Страница создана 29.04.2012
http://primanota.ru/flaming-lips/havent-got-a-clue-chords.htm
Привет, Гость.
Предлагаем пройти революционный курс по гитаре.
Подарок от PrimaNota.Ru, забирай!