PrimaNota.ru - самый крупный в мире бесплатный архив песенных текстов, аккордов, табулатур и нот


Flaming Lips - Ego Tripping At The Gates Of Hell - текст песни, бас-таба, видео

Регистрация Запомнить меня
Войти через:  Facebook Google Twitter Vk Yandex Mail.ru

Flaming Lips - Ego Tripping At The Gates Of Hell - текст песни, бас-таба, видео

Печатать
Просмотров: 100
(0:07)
G-----------------|-----------------|-----------------|-----------------|
D-----------------|-----------------|-----------------|-----------------|
A----8-8-8----10--|----8-8-8----12--|----8-8-8----10--|----8-8-8----12--|
E-10-------10-----|-10-------10-----|-10-------10-----|-10-------10-----|

(0:19)
G-----------------|-----------------|-----------------|-----------------|-----------------|
D---8-8-8---7-----|--------------7--|---8-8-8---7-----|--------------7--|-7-7-------------|
A-8-------8-------|-8-10-10-10-8----|-8-------8-------|-8-10-10-10-8----|-----10-8-10-----|
E-----------------|-----------------|-----------------|-----------------|-----------------|

(0:28)
G-----------------|-----------------|-----------------|-----------------|-----------------|
D-----------------|-----------------|-----------------|-----------------|-----------------|
A----8-8-8----10--|----8-8-8----12--|----8-8-8----10--|----8-8-8----12--|-12-10-8---------|
E----------10-----|-10-------10-----|-10-------10-----|-10-------10-----|---------10------|

(0:40)
G-----------------|-----------------|-----------------|-----------------|-----------------|
D-----------------|-----------------|-----------------|-----------------|-----------------|
A----8-8-8----10--|----8-8-8----12--|----8-8-8----10--|----8-8-8----12--|-12-12-10-8-10---|
E----------10-----|-10-------10-----|-10-------10-----|-10-------10-----|-----------------|

(0:51)
G-----------------|-----------------|-----------------|-----------------|-----------------|
D---8-8-8---7-----|--------------7--|---8-8-8---7-----|-----------------|-----------------|
A---------8-------|-8-10-10-10-8----|-8-------8-------|-8-10-10-10-8----|--------7--------|
E-----------------|-----------------|-----------------|--------------8--|-8-10-8----------|

(1:02)
G-----------------|-----------------|-----------------|--------------------|
D-----------------|-----------------|-----------------|--------------------|
A----8-8-8----10--|----8-8-8----12--|----8-8-8----10--|--------------------|
E----------10-----|-10-------10-----|-10-------10-----|-10-8-8-8-5-8-5-10-8|

(1:13)
G-----------------|-----------------|-----------------|-----------------|-----------------|
D-----------------|-----------------|-----------------|-----------------|-----------------|
A----8-8-8----10--|----8-8-8----12--|----8-8-8----10--|----8-8-8--------|--------7--------|
E----------10-----|-10-------10-----|-10-------10-----|-10-------10-8-8-|-8-10-8----------|

(1:24)
G-----------------|-----------------|-----------------|-----------------|-----------------|
D-----------------|-----------------|-----------------|-----------------|-----------------|
A----8-8-8----10--|----8-8-8----12--|----8-8-8----10--|----8-8-8----12--|-12-12-10-8-10---|
E----------10-----|-10-------10-----|-10-------10-----|-10-------10-----|-----------------|

(1:35)
G-----------------|-----------------|-----------------|-----------------|-----------------|
D-----------------|-----------------|-----------------|-----------------|-----------------|
A----8-8-8----10--|----8-8-8----12--|----8-8-8----10--|----8-8-8--------|--------7--------|
E----------10-----|-10-------10-----|-10-------10-----|-10-------10-8-8-|-8-10-8----------|

(1:46)
G-----------------|-----------------|-----------------|-----------------|-----------------|
D-----------------|-----------------|-----------------|-----------------|-----------------|
A----8-8-8----10--|----8-8-8----12--|----8-8-8----10--|----8-8-8----12--|-10-8----10-8----|
E----------10-----|-10-------10-----|-10-------10-----|-10-------10-----|------10---------|

(1:57)
G-----------------|-----------------|-----------------|-----------------|-----------------|
D---8-8-8---7-----|--------------7--|---8-8-8---7-----|-----------------|-----------------|
A---------8-------|-8-10-10-10-8----|-8-------8-------|-8-10-10-10-8-7--|--------7--------|
E-----------------|-----------------|-----------------|-----------------|-8-10-8----------|

(2:08)
G-----------------|-----------------|-----------------|-----------------|-----------------|
D-----------------|-----------------|-----------------|-----------------|-----------------|
A----8-8-8----10--|----8-8-8----12--|----8-8-8----10--|-----------------|--------7--------|
E----------10-----|-10-------10-----|-10-------10-----|-10-8-8-8-8-10-8-|-8-10-8----------|

(2:19)
G-----------------|-----------------|-----------------|-----------------|-----------------|
D-----------------|-----------------|-----------------|-----------------|-----------------|
A----8-8-8----10--|----8-8-8----12--|----8-8-8----10--|--------8---12-12|-12-10-8-10------|
E----------10-----|-10-------10-----|-10-------10-----|-10-8-8---8------|-----------------|

(2:30)
G-----------------|-----------------|-----------------|-----------------|-----------------|
D-----------------|-----------------|-----------------|-----------------|-----------------|
A----8-8-8----10--|----10-10-10-8---|----8-8-8----10--|-12--------------|--------7--------|
E----------10-----|-10------------8-|-10-------10-----|----8-8-8-8-10-8-|-8-10-8----------|

(2:41)
G-----------------|-----------------|-----------------|
D-8~~~~~~~~~~~~~~~|-8~~~~~~~10~~~~~~|-----------------|
A-----------------|-----------------|-----------------|
E-----------------|-----------------|-8--8-8-8--------|

(2:52)
G-----------------|-----------------|-----------------|-----------------|-----------------|
D-----------------|-----------------|-----------------|-----------------|-----------------|
A----8-8-8----10--|----8-8-8----12--|----8-8-8----10--|--------8---12-12|--------7--------|
E----------10-----|-10-------10-----|-10-------10-----|-10-8-8---8------|-8-10-8----------|

(3:03)
G-----------------|-----------------|-----------------|-----------------|-----------------|
D-----------------|-----------------|-----------------|-----------------|-----------------|
A----8-8-8----12--|----8-8-8----10--|----10-10-10-8---|----8-8-8--------|-12-10-8-10------|
E----------10-----|-10-------10-----|-10------------10|-10-------10-8---|-----------------|

(3:14)
G-----------------|-----------------|-----------------|-----------------|-----------------|
D-----------------|-----------------|-----------------|-----------------|-----------------|
A---------8-------|---12-12-10-8----|----10-10-10-8---|----8-8-8--------|-----------------|
E---10-10---10-8--|10-----------10-8|-10------------8-|-10-------10-8---|-8-8-10-8-10-----|

(3:25)
G-----------------------------------------------------------------------------------------|
D-----------------------------------------------------------------------------------------|
A-12-12-10-8--------7-12-12-10-8--------12-8-10-10-10-8----10-8------8-8-8-------------7--|
E------------8|10-8-------------10-8|10---------------10-8|-----10-8-------10-8|8-10-8----|

(3:36)
G---------------------------------------------------------------------------------------|
D---------------------------------------------------------------------------------------|
A----8-8-8---------8-12-12-12-10-12|---12-8-10-10-10-8----10|---10----8-8------7--------|
E----------10-8|10------------------10-----------------10----10----10-----10-8---8------|

(3:47)
G--------------------------------------------------------------------------------------------|
D--------------------------------------------------------------------------------------------|
A----------8----10----12-12-12-12-10-12|--12-10-8-10-10-10-8----10|---8-8-8---------8-8----8-|
E----10-10---10---|10-------------------8--------------------10----10-------10-8-10-----10---|

(3:58)                                                        |Fading
Begins...
G-------------------------------------------------------------|-------------------------|
D-------------------------------------------------------------|-------------------------|
A---12-12-12-10-12|---8-10-12-12-12-10-12|---12-8-10-10-10-8--|-8-8-8------12-10-8_10---|
E------------------10---------------------10----------------10|-------10-8|-------------|

(4:09)
G--------------------------------------------------------------------------------------------|
D--------------------------------------------------------------------------------------------|
A----------8----10----12-12-12-12-10-12|--12-10-8-10-10-10-8----10|---8-8-8---------8-8----8-|
E----10-10---10---|10-------------------8--------------------10----10-------10-8-10-----10---|
Добавлено: 20.04.2012
Другие материалы по этой песне:
  • Аккорды и текст

Страница создана 20.04.2012
http://primanota.ru/flaming-lips/ego-tripping-at-the-gates-of-hell-chords.htm
Привет, Гость.
Предлагаем пройти революционный курс по гитаре.
Подарок от PrimaNota.Ru, забирай!