PrimaNota.ru - самый крупный в мире бесплатный архив песенных текстов, аккордов, табулатур и нот


Flaming Lips - Ego Trippin - таба, видео

Регистрация Запомнить меня
Войти через:  Facebook Google Twitter Vk Yandex Mail.ru

Flaming Lips - Ego Trippin - таба, видео

Печатать
Просмотров: 110
F/Flaming_lips/Ego_Trippin‘_at_the_Gates_of_Hell_Acoustic/Tab

Artist: Flaming Lips
Album: Yoshimi Battles the Pink Robots
Song: Ego Trippin‘ at the Gates of Hell
Transcribed by Daniel Paul
Tuning: Standard             
                             (Tabbed for acoustic guitar)
                                based on F Major scale
INTRO: 
           part one (2x)              part two           
e|---------------------------------|-----------|
B|---------------------------------|-----------|
G|---------------------------------|-2-2p0---0-|
D|-0h3-3-3-0h5--x---0h3-3-3-0h7--x-|-------3---|
A|---------------------------------|-----------|
E|---------------------------------|-----------|

          part three (2x)        part two
e|-----------------------------|-----------|
B|-----------------------------|-----------|
G|-3-3-3---2-----0--0--0---2---|-2-2p0---0-|
D|-------3-----3---------3---x-|-------3---|
A|-----------------------------|-----------|
E|-----------------------------|-----------|

LEAD:
   ///x/ x ///x/ x ///x/ x  ///x/     ///x/   x  ///x/ x ///x/ x ///x/ 
   F   F9  C   C6  Dm  Dm4  C   C6    Bb  Bbmaj7 Bb6 Bb  Gm  Gm7 C   C6   
e|-1---1---0---0---1---1----0---0------1---1-----1---1---3---3---0---0--|
B|-1---1---1---1---3---3----1---1------3---3-----3---3---3---3---1---1--|
G|-2---0---0---2---2---0----0---2------3---2-----0---2---3---3---0---2--|
D|-3---3---2---2---3---3----2---2------3---3-----3---3---5---3---2---2--|
A|-3---3---3---3------------3---3------1---1-----1---1---5---5---3---3--|
E|-1---1-------------------------------------------------3---3----------|

VERSE:
                   part one (2x)                    fill
   / / //// // / //// // / //// // / ////       after 2nd time
   F         C         Dm        C
e|-1---------0---------1---------0-----------|  |-----------|
B|-1---------1---------3---------1-----------|  |-----------|
G|-2---------0---------2---------0-----------|  |--2h0---0--|
D|-3---------2---------0---------2-----------|  |------3----|
A|-3---------3-------------------3-----------|  |-----------|
E|-1-------------------------------------(0)-|  |-----------|

                    part two                       fill
   / /// //// / /// //// / /// ////  / /// //
   Bb         Bbmaj7     Gm    Gm7   C     C6  
e|-1----------1----------3-----3-----0-----0----------------|
B|-3----------3----------3-----3-----1-----1----------------|
G|-3----------2----------3-----3-----0-----2----2-2h0---0---|
D|-3----------3----------5-----3-----2-----2----------3-----|
A|-1----------1----------5-----5-----3-----3----------------|
E|-----------------------3-----3----------------------------|CHORUS:

    part one   part two
    // /  /     / / /// / /// /. /.  /. / / / /    //
    C  C9      F9 F     C9            Dm            C
e|--0--0--1--|--3--1-----5-------------1------------0-------|
B|--1--3-(X)-|--1--1-----5-------------3------------1-------|
G|--0--0-(0)-|--2--2-----5-------------2------------0-------|
D|--2--2-----|--x--3-----5-------------0------------2-------|
A|--3--3-----|--3--3-----3--------------------------3-------|
E|-----------|--1--1----------------------------------------|

BRIDGE:                                          
    / /// /// / /// /// /  /  /  /  /  /           
    Bbm       Eb        Bbm      C    C7             
e|--1---------6---------9--8--6--8--8--8-------| 
B|--2---------8---------6--6--6--8--8--11------| 
G|--3---------8---------6--6--6--9--9--9-------| 
D|--3---------8---------8--8--8--10-10-10------| 
A|--1---------6---------8--8--8--10-10-10------| 
E|----------------------6--6--6--8--8--8-------| 
UTERO:
    / / ////// / / ///// / / ///// /   
    Dm         Am        Gm        C
e|--1----------0---------3---------0---|
B|--3----------1---------3---------1---|
G|--2----------2---------3---------0---|
D|--0----------2---------5---------2---|
A|-(0)---------0---------5---------3---|
E|-----------------------3-------------|

CHRONOLOGY:

INTRO:

LEAD:

VERSE I:

F      C           Dm    C   F        C            Dm   C  Fill 
I was waiting on a moment,   but that moment never came

Bb      Bbmaj7         Gm  Gm7  C  Fill  F          C              Dm   C
All the millions other moments,           were just slippin' all away

CHORUS: 

C(part one)      F9   F     C9    Dm    C 
I must have been trippin'

C(part one) F9   F          C9    Dm    C    Fill 
Just ego    trippin' 

VERSE II:

F     C               Dm      C   F         C            Dm     C   Fill 
I was wanting you to love me,      but that lovin' never came

Bb      Bbmaj7       Gm  Gm7   C  Fill  F           C           Dm    C
All the other love around me,            was just slippin' all away

CHORUS: 

C(part one)      F9   F     C9    Dm    C 
I must have been trippin'

C(part one) F9   F          C9    Dm    C    Fill 
Just ego    trippin' 

BRIDGE:

Chorus C (part one)  Bb          Eb            Eb           C        C7
I must have been     trippin'…   ohh oh ohh    ohh oh ohh   oh oh oh ohh

LEAD:

CHORUS:

C(part one)      F9   F     C9    Dm    C 
I must have been trippin'

C(part one) F9   F          C9    Dm    C    Fill 
Just ego    trippin' 




UTERO: 

C                 Dm       Am                 G    C
I must have been trippin'…    (slippin' all away)

C(part one)  Dm        Am                 G     C
Just ego     trippin'…    (slippin' all away)

INTRO: end on F
Добавлено: 14.06.2012
Другие материалы по этой песне:
  • Аккорды и текст

Страница создана 14.06.2012
http://primanota.ru/flaming-lips/ego-trippin-chords.htm
Привет, Гость.
Предлагаем пройти революционный курс по гитаре.
Подарок от PrimaNota.Ru, забирай!