PrimaNota.ru - самый крупный в мире бесплатный архив песенных текстов, аккордов, табулатур и нот


Fku - The Pit And The Poser - таба, видео

Регистрация Запомнить меня
Войти через:  Facebook Google Twitter Vk Yandex Mail.ru

Fku - The Pit And The Poser - таба, видео

Печатать
Просмотров: 124
THE PIT AND THE POSER

DGCFAD
             0:03                                          

             RIFF 1
-------------------------------------------------------------------------|
-------------------------------------------------------------------------|
-------------------------------------------------------------------------|
-*-*-*---------------------------------------------------------3---------|
-3-3-3-------2-**-5-*-5-7-*-2-**-5-*-5-8-*-2-**-5-*-5-7-*-3-**-1-*-3-*---|
-1-1-1-------0-00-3-0-3/5-0-0-00-3-0-3/6-0-0-00-3-0-3/5-0-1-11---0-1-0---|

                                                  0:12
-------------------------------------------------------|
-------------------------------------------------------|
-------------------------------------------------------|
-------------------------------------------------------|
-2-**-5-*-5-7-*-2-**-5-*-5-8-*-2-**-5-*-5-7-*-3-******-|
-0-00-3-0-3/5-0-0-00-3-0-3/6-0-0-00-3-0-3/5-0-1-111111-|


RIFF 1 REPEATS 3 TIMES 0:12-0:41


0:42                                                                                   0:52
RIFF 2
---------------------------------------------------------------------------------------------|
---------------------------------------------------------------------------------------------|
---------------------------------------------------------------------------------------------|
-----------------------------------------3---------------------------------------------------|
-2-**-2---8-*-7-*-7-*-8-5-**-5---4-*-3-*-1-*-3-*-2-**-2---8-*-7-*-7-*-8-5-**-5---4-*-4-**-3--|
-0-00-0---6-0-5-0-5-0-6-3-33-3---2-0-1-0---0-1-0-0-00-0---6-0-5-0-5-0-6-3-33-3---2-2-2-11-1--|


0:52                                                                           1:02
RIFF 3
----------------------------------------------------------------------------------|
----------------------------------------------------------------------------------|
----------------------------------------------------------------------------------|
----4--3-----------------------------7---7-9-----4--5-----------------------------|
-2--2--1--2--****-5-4-*-5-*-7-*-2-**-5-*-5/7--2--2--3--2--***-5-**-5--4-*-4--**-3-|
-0--------0--0000-3\2-0-3-0-5-0-0-00---0------0--------0--000-3-33-3--2-2-2--11-1-|



RIFF 3 REPEATS 1:02-1:12

RIFF 1 REPEATS 2 TIMES 1:12-1:32

RIFF 2 REPEATS  1:32-1:42

RIFF 3 REPEATS 2 TIMES 1:42-2:02


2:02                                                                     2:10
RIFF 4
------------------------------------------------------------------------------|
------------------------------------------------------------------------------|
------------------------------------------------------------------------------|
------------------------------------------------------------------------------|
-5-4-*-6-5-*-8-7-*-8-3-*-3-5-****************--5-4-*-6-5-*-8-7-*-8-3-*-3-5-8--|
-3-2-0-4-3-0-6-5-0-6-1-0-1-3-0000000000000000--3-2-0-4-3-0-6-5-0-6-1-0-1-1/6--|


2:10                                                         2:17
------------------------------------------------------------------|
------------------------------------------------------------------|
------------------------------------------------------------------|
----------9-9----9-9----------------------------------------------|
*********-7-7-**-7-7-5-4-*-6-5-*-8-7-*-8-3-*-3-5-****************-|
000000000-----00-----3-2-0-4-3-0-6-5-0-6-1-0-1-3-0000000000000000-|


2:17                                                      2:22
---------------------------------------------------------------|
---------------------------------------------------------------|
---------------------------------------------------------------|
---------------------------------------------------------------|
-5-4-*-6-5-*-8-7-*-8-3-*-3-5-8-5-4-*-6-5-*-8-7-*-8-3-*-3-5-----|
-3-2-0-4-3-0-6-5-0-6-1-0-1-1/6-3-2-0-4-3-0-6-5-0-6-1-0-1-3-----|

2:22                                                         2:30
RIFF 5
-------------------------------------------------------------------|
-------------------------------------------------------------------|
-------------------------------------------------------------------|
----4-3---------------------4-3----------5-4-----------------------|
-2--2-1-****-2-******-5--4--2-1-****-3-2-3-2-****-2-******-5-4-3-4-|
-0------0000-0-000000-3--2------1111-1-0-----0000-0-000000-3-2-1-2-|


2:30                                                         2:38
-------------------------------------------------------------------|
-------------------------------------------------------------------|
-------------------------------------------------------------------|
----4-3---------------------4-3----------5-4-----------------------|
-2--2-1-****-2-******-5--4--2-1-****-3-2-3-2-****-2-******-5-4-3-4-|
-0------0000-0-000000-3--2------1111-1-0-----0000-0-000000-3-2-1-2-|

|||||||||||||||||||||||||||||||||||||||||||||||||||||||||||||||||||||

2:38                                                                           2:48
-------------------------------------------------------------------------------------|
-------------------------------------------------------------------------------------|
-------------------------------------------------------------------------------------|
-----4---3------------------------------7---7-9-----4--5-----------------------------|
-2---2---1---2----**-5-4-*-5-*-7-*-2-**-5---5/7--2--2--3--2--***-5-**-5--4-*-4--**-3-|
-0-----------0----00-3\2-0-3-0-5-0-0-00---0------0--------0--000-3-33-3--2-2-2--11-1-|


2:48                                                                       2;58
----------------------------------------------------------------------------------|
----------------------------------------------------------------------------------|
----------------------------------------------------------------------------------|
----4--3-----------------------------7---7-9-----4--5-----------------------------|
-2--2--1--2--****-5-4-*-5-*-7-*-2-**-5---5/7--2--2--3--2--***-5-**-5--4-*-4--****-|
-0--------0--0000-3\2-0-3-0-5-0-0-00---0------0--------0--000-3-33-3--2-2-2--1111-|


2:58                                                                        3;08 
----------------------------------------------------------------------------------|
----------------------------------------------------------------------------------|
----------------------------------------------------------------------------------|
----4--3-----------------------------7---7-9-----4--5-----------------------------|
-2--2--1--2--****-5-4-*-5-*-7-*-2-**-5---5/7--2--2--3--2--***-5-**-5--4-*-4--**-3-|
-0--------0--0000-3\2-0-3-0-5-0-0-00---0------0--------0--000-3-33-3--2-2-2--11-1-|

3:08                                                                       3:17
----------------------------------------------------------------------------------|
----------------------------------------------------------------------------------|
----------------------------------------------------------------------------------|
----4--3-----------------------------7---7-9-----4--5-----------------------------|
-2--2--1--2--****-5-4-*-5-*-7-*-2-**-5---5/7--2--2--3--2--***-5-**-5--4-*-4--**-3-|
-0--------0--0000-3\2-0-3-0-5-0-0-00---0------0--------0--000-3-33-3--2-2-2--11-1-|


END
---------------------------------------------------------------|
---------------------------------------------------------------|
---------------------------------------------------------------|
-------4---3---4-----------------------------------------------|
-2-----2---1---2---------------**--5-4-*-5-*-7-*-2-------------|
-0-----------------------------00--3\2-0-3-0-5-0-0-------------|
Добавлено: 29.02.2012
Другие материалы по этой песне:
  • Аккорды и текст

Страница создана 29.02.2012
http://primanota.ru/fku/the-pit-and-the-poser-chords.htm
Привет, Гость.
Предлагаем пройти революционный курс по гитаре.
Подарок от PrimaNota.Ru, забирай!