PrimaNota.ru - самый крупный в мире бесплатный архив песенных текстов, аккордов, табулатур и нот


Fjorden Baby - Igjen Og Igjen - аккорды и текст, видео

Регистрация Запомнить меня
Войти через:  Facebook Google Twitter Vk Yandex Mail.ru

Fjorden Baby - Igjen Og Igjen - аккорды и текст, видео

Печатать
Просмотров: 119
Igjen Og Igjen
Fjorden Baby
----------------------------------------------------------------- 
Igjen og Igjen - Fjorden Baby
----------------------------------------------------------------- 

Intro:
e|---------------------------------------------------------------|
B|---------------------------------------------------------------|
G|-9-9-7-7-6-6---------------------------------------------------|
D|-------------9-9-7-7-9-9-7-7-6-6-7-----------------------------|
A|---------------------------------------------------------------|
E|---------------------------------------------------------------|

Played repeatedly during the whole song:
e|-------------------------------------------------------------------------|
B|-------------------------------------------------------------------------|
G|-------------------------------------------------------------------------|
D|--7---------7-------7---------7------6---------6------6---------6--------|
A|----7-4---7---7-------7-4---7---7------7-4---7---7------7-4---7---7------|
E|--------5-----------------5----------------4----------------4------------|

e|-------------------------------------------------------------------------|
B|-------------------------------------------------------------------------|
G|-------------------------------------------------------------------------|
D|-4------4------4------4---------4-------4-------4-------4----------------|
A|---4------4------4------4---------5---5---5---5---5---5---5---5----------|
E|-----5------5------5------5---------5-------5-------5-------5------------|

A    C#m    F#m    D

A
Kjære vakre kloke
C#m
desperate floke
F#m
vi såg lyset og ble blinde
D
vi såg lyset og ble blinde

A
Ute eller inne
C#m
hver natt skal forsvinne
F#m
hvis ekkoene vil det
D
og du kan skylde på meg
og eg kan skylde på deg

A    C#m    F#m    D

A
Igjen og igjen og igjen og igjen
C#m
Igjen og igjen og igjen og igjen
F#m
Igjen og igjen og igjen og igjen
D
Igjen og igjen og igjen og igjen

A    C#m    F#m    D

A
Kvelertak på dagen
C#m
vrir'an om til en bra en
F#m
og du kan skylde på meg
og eg skal skylde på deg
D
til du husker å miste taket

A                                  C#m
Taket ser eg'an visner i en vilden sky
F#m
før natten faller, stormen kaller
D
og vår lykketyv den blomstrer

A
Igjen og igjen og igjen og igjen
C#m
Igjen og igjen og igjen og igjen
F#m
Igjen og igjen og igjen og igjen
D
Igjen og igjen og igjen og igjen

A    C#m    F#m    D

A
Vi har kjærlighet på piller
C#m
og kjærlighet på pinner
F#m                                          D
koffor går vi i ring til ingen pinner på oss

A                           
og mens verden går på skinner
C#m
og minne forvirrer
F#m
Kjører vi oss vill til vi forsvinner
D
og du kan skylde på meg
og eg kan skylde på deg

A
Igjen og igjen og igjen og igjen
C#m
Igjen og igjen og igjen og igjen
F#m
Igjen og igjen og igjen og igjen
D
Igjen og igjen og igjen og igjen

A
Igjen og igjen og igjen og igjen
C#m
Igjen og igjen og igjen og igjen
F#m
Igjen og igjen og igjen og igjen
D
Igjen og igjen og igjen og igjen

A    C#m    F#m    D  x4
Добавлено: 28.06.2016
Другие материалы по этой песне:
  • Аккорды и текст

Страница создана 28.06.2016
http://primanota.ru/fjorden-baby/igjen-og-igjen-chords.htm
Привет, Гость.
Предлагаем пройти революционный курс по гитаре.
Подарок от PrimaNota.Ru, забирай!