PrimaNota.ru - самый крупный в мире бесплатный архив песенных текстов, аккордов, табулатур и нот


Fizzgig - Dedicated Thought - таба, видео

Регистрация Запомнить меня
Войти через:  Facebook Google Twitter Vk Yandex Mail.ru

Fizzgig - Dedicated Thought - таба, видео

Печатать
Просмотров: 62
Уроки эстрадного вокала в Санкт-Петербурге
Fizzgig- Dedicated Thought
from their new album "Three Word Title"

tabbed by Neil Dillon (dilliondollarman@excite.com)
this is all my own work

bass line (play notes 8x)
G-------------------------------------
D-------------------------------------
A-------------------------------------
E-5-5-5-5-0-0-0-0-2-2-2-2-\10-10-10-10


verse fill (over bass line)
E-------------------------------------
B-------------------------------------
G-------------------------------------
D-7--7--------------------------------
A------7--9--9-5---7--9--5-5----------
E----------------5------------5-------

chorus

(A) (E) (F#) (D)
-5--------0--------2--------5
-5--------0--------2--------7
-6--------1--------3--------7
-7--------2--------4--------7
-7--------2--------4--------5
-5--------0--------2--------5

     
Добавлено: 07.11.2013
Вам также может быть интересно:
Другие материалы по этой песне:
  • Аккорды и текст

Страница создана 07.11.2013
http://primanota.ru/fizzgig/dedicated-thought-chords.htm
Привет, Гость.
Предлагаем пройти революционный курс по гитаре.
Подарок от PrimaNota.Ru, забирай!