PrimaNota.ru - самый крупный в мире бесплатный архив песенных текстов, аккордов, табулатур и нот


Fixx - Privilege - бас-таба, видео

Регистрация Запомнить меня
Войти через:  Facebook Google Twitter Vk Yandex Mail.ru

Fixx - Privilege - бас-таба, видео

Печатать
Просмотров: 61
Tabbed by: bassm99
E-mail: alanmatthews1966@yahoo.co.uk

Tuning: E, A, D, G

"Privilege" from the album "Reach The Beach" (1983)
Written by Curnin/Woods/West-Oram/Greenall/Agius

Bass Starts 0:04    

Intro: 
 
G|--------------------------------------------------------------------------|
D|--------------------------------------------------------------------------|
A|--------------------------------------------------------------------------|
E|--1-(x1)-3-3-1-(x8)-------------------------------------------------------|

Verse: (Play 32 Times)

G|--------------------------------------------------------------------------|
D|--------------------------------------------------------------------------|
A|--------------------------------------------------------------------------|
E|--3-3-1-------------------------------------------------------------------|

Pre Chorus: (Play 12 Times)

G|--------------------------------------------------------------------------|
D|--------------------------------------------------------------------------|
A|--------------------------------------------------------------------------|
E|--6-6-4-------------------------------------------------------------------|

Chorus:

G|--------------------------------------------------------------------------|
D|--------------------------------------------------------------------------|
A|--66666----44444----66666-------------------------------------------------|
E|-----------------------------6-6-4---6-6-4---6-6-4---6-6-4----------------|

Repeat Verse: (Play 16 Times)

Repeat Pre Chorus:

Repeat Chorus:

Bridge: (Play 32 Times)

G|--------------------------------------------------------------------------|
D|--------------------------------------------------------------------------|
A|--------------------------------------------------------------------------|
E|--3-3-1-------------------------------------------------------------------|

Repeat Pre Chorus:

Repeat Chorus:

Ending: (Repeat to stop/fading out 2:56 - 4:14)

G|--------------------------------------------------------------------------|
D|--------------------------------------------------------------------------|
A|--------------------------------------------------------------------------|
E|--3-3-1-------------------------------------------------------------------|
Добавлено: 20.11.2015
Другие материалы по этой песне:
  • Аккорды и текст

Страница создана 20.11.2015
http://primanota.ru/fixx/privilege-chords.htm
Привет, Гость.
Предлагаем пройти революционный курс по гитаре.
Подарок от PrimaNota.Ru, забирай!