PrimaNota.ru - самый крупный в мире бесплатный архив песенных текстов, аккордов, табулатур и нот


Fixx - Is That It - бас-таба, видео

Регистрация Запомнить меня
Войти через:  Facebook Google Twitter Vk Yandex Mail.ru

Fixx - Is That It - бас-таба, видео

Печатать
Просмотров: 53
Tabbed by: bassm99
E-mail: alanmatthews1966@yahoo.co.uk

Tuning: E, A, D, G

"Is That It?" from the album "Elemental" (1998)
Written by The Fixx

Intro: (Play 4 Times)
 
G|--------------------------------------------------------------------------|
D|--------------------------------------------------------------------------|
A|------0-1-2--------0-1-2--------------------------------------------------|
E|--0-0--------0-0-0--------------------------------------------------------|

Verse:

G|--------------------------------------------------------------------------|
D|--------------------------------------------------------------------------|
A|------0-1-2--------0-1-2-(x7)------0-1-2----------------------------------|
E|--0-0--------0-0-0-------------0-0--------0-------------------------------|

Chorus:

G|--------------------------------------------------------------------------|
D|--------------------------------------------------------------------------|
A|------0-1-2-(x7)----------------------------------------------------------|
E|--0-0-------------0-------------------------------------------------------|

Repeat Verse:

Chorus:

G|--------------------------------------------------------------------------|
D|--------------------------------------------------------------------------|
A|------0-1-2-(x15)------0-1-2/---------------------------------------------|
E|--0-0--------------0-0----------------------------------------------------|

Bridge:

G|--------------------------------------------------------------------------|
D|--------------------------------------------------------------------------|
A|--7777-6666-5555-4444-3333-2222-1111-----------------0-1-2-(x3)-----0-1-2/|
E|-------------------------------------5-4-3-(x1)--0-0------------0-0-------|

G|--------------------------------------------------------------------------|
D|--------------------------------------------------------------------------|
A|--7777-6666-5555-4444-3333-2222-1111-----------------0-1-2-(x3)-----------|
E|-------------------------------------5-4-3-(x1)--0-0-------------0--------|

Repeat Verse:

Repeat Chorus: (Play 32 Times) (Fades Out)

G|--------------------------------------------------------------------------|
D|--------------------------------------------------------------------------|
A|------0-1-2---------------------------------------------------------------|
E|--0-0---------------------------------------------------------------------|

End:

G|--------------------------------------------------------------------------|
D|--------------------------------------------------------------------------|
A|--------------------------------------------------------------------------|
E|--0-0---------------------------------------------------------------------|
Добавлено: 20.11.2015
Вам также может быть интересно:
Другие материалы по этой песне:
  • Аккорды и текст

Страница создана 20.11.2015
http://primanota.ru/fixx/is-that-it-chords.htm
Привет, Гость.
Предлагаем пройти революционный курс по гитаре.
Подарок от PrimaNota.Ru, забирай!