PrimaNota.ru - самый крупный в мире бесплатный архив песенных текстов, аккордов, табулатур и нот


Five Times August - The Good Life - таба, видео

Регистрация Запомнить меня
Войти через:  Facebook Google Twitter Vk Yandex Mail.ru

Five Times August - The Good Life - таба, видео

Печатать
Просмотров: 116
The Good Life by Five Times August
Capo 2nd fret
Opening/Verse
-----------------------------------------------------------|
-----------------------------------------------------------|
--/5--5--9--9----------------------------------------------|
--/5--5----------5—9/4----2---4---5---5---4----4h5r4--0----|
--/5--5----------5--------2-----------5---5----------------|
-----------------5--------2--------------------------------|

Pre-Chorus
-----------------------------------------------------------|
-----------------------------------------------------------|
---X---- X-----X----X-----X----X----X---X-----11-----------|
---7-----4-----7----12----7----4----7---12----12-----------|
---5-----2-----5----10----5----2----5---10----10-----------|
---5-----2-----5----10----5----2----5---10----10-----------|


Chorus

----------------------------------------------------------------------------|
----------------------------------------------------------------------------|
---7--7--X--7--7--X---------------------------------------------------------|
---7--7--X--5--5--X--5--5--X--5--5--(5)X--2--2--X--2--2--X--5--5-X--7--7--X-|
---5--5--X--5--5--X--5--5--X--5--5--(5)X--2--2--X--2--2--X--5--5-X--5--5--X-|
---------------------3--3--X--3--3--(2)X--0--0--X--0--0--X--3--3-X--5--5--X-|


-----------------------------------------------------------------|
-----------------------------------------------------------------|
---7--7--X--7--7--X----------------------------------------------|
---7--7--X--5--5--X--5--5--X--5--5--(5)X--2--2--X--2--2--X---5~--|
---5--5--X--5--5--X--5--5--X--5--5--(5)X--2--2--X--2--2--X---5~--|
---------------------3--3--X--3--3--(2)X--0--0--X--0--0--X---3~--|


Bridge
-----------------------------------------------------------|
---------------------------------------------------5--5----|
--/5--5--------------------------------------------0--0----|
--/5--5--5--4--5--7--4---2---4---5---------0h4-----4--4----|
--/5--5--------5---------2------------4h5----------5--5----|
---------------5---------2---------------------------------|

2nd Bridge
--------------------|
--------------------|
---7---6---7--------|
---7---7---7--------|
---5---5---5--------|
--------------------|

Song:
Intro/Verse
Pre-chorus
Chorus
Verse
Pre-chorus
Chorus
Bridge (4x)
2nd Bridge
Chorus

Figure out the strumming yourself. and done.
Добавлено: 12.06.2012
Другие материалы по этой песне:
  • Аккорды и текст

Страница создана 12.06.2012
http://primanota.ru/five-times-august/the-good-life-chords.htm
Привет, Гость.
Предлагаем пройти революционный курс по гитаре.
Подарок от PrimaNota.Ru, забирай!