- самый крупный в мире бесплатный архив песенных текстов, аккордов, табулатур и нот

Five Times August - Do It Again - текст песни, таба, видео

Регистрация Запомнить меня
Войти через:  Facebook Google Twitter Vk Yandex

Five Times August - Do It Again - текст песни, таба, видео

Просмотров: 144
Band: Five Times August
Song: Do It Again
Album: Acoustic Sessions

Capo: 3rd Fret

Email me at for anything you need to tell me about this tab. It's my 
real tab so don't be too harsh.

Intro, 1st Verse, and Chorus

 |----2---2---2---|----2---2---2---2--2---2----2---| Play this 1 time then
 |-0h3-----0h3----|-0h3-----0h3----0h2------0h3----| start singing.

So you got what you want out of me...

e|----------------|         |--------------------------------|
 |------3-------3-|         |------3-------3------3--------3-|
 |-----0-0-----2--|         |-----0-2-----0-2----0-2------0--|
 |----2---2---2---|         |----2---2---2---2--2---2----2---|
 |-0h3-----0h3----|         |-0h3-----0h3----0h2------0h3----|
E|----------------|         |--------------------------------|

Every time you play the first part once play the second part twice, play this until the 
of the first chorus which is about :50 seconds into the song, then start the chord strumming.

This is the basic deal, but he does some things that I couldn't figure out.

|-0-0-x-0-0-0--x-0-0-x-| x3

After that 3 times he continues to do it without the slide part 6 times and then that 
twice, then he launches into a different sounding progression at about 1:38 in the song, 
it's just one extra finger.


Thats all I could figure out, he goes back and forth between these two riffs then solos, 
couldn't figure that out.
Добавлено: 01.03.2012
Другие материалы по этой песне:
  • Аккорды и текст

Страница создана 22.02.2012
Привет, Гость.
Предлагаем пройти революционный курс по гитаре.
Подарок от PrimaNota.Ru, забирай!