PrimaNota.ru - самый крупный в мире бесплатный архив песенных текстов, аккордов, табулатур и нот


Five Iron Frenzy - Vultures - текст песни, таба, видео

Регистрация Запомнить меня
Войти через:  Facebook Google Twitter Vk Yandex Mail.ru

Five Iron Frenzy - Vultures - текст песни, таба, видео

Печатать
Просмотров: 135
Song: Vultures
Artist: Five Iron Frenzy
Album: Five Iron Frenzy 2: Electric Boogaloo
My Email: skemo_the_fish@hotmail.com
Tuning: Standard

Verse (Guitar 1 - clean and palm muted)

e|-----------------------------------|
B|-----------------------------------|
G|---------------7-----------6-----o-|
D|-----------6-------------7----7--o-|
A|-(5-6)-7-----7-----7-5-------------|
E|-----------------------------------|
     
Verse (Guitar 2 - w/distortion and palm muting)

e|--------------------------------------------------------------------|
B|--------------------------------------------------------------------|
G|-----------------6---6h7-------------------------6-9-7-6----------o-|
D|-----9-7-6---7-9-------------7-6-----9-7-6---7-9---------9-7-6----o-|
A|-7-----------------------9---------7---------------------------9----|
E|--------------------------------------------------------------------|

Prechorus (Guitar 1 - clean)
   
e|---------------------------------------------|
B|---------------------------------------------|
G|---------------------------------------------|
D|-6---6---6---6--------6---6---6---6---6---4--|
A|---7---7---7---7-....---7---7---7---7---7-6--|
E|---------------------------------------------|

Prechorus (Guitar 2 - clean)

e|---------------------------------------------------------------|
B|---------------------------------------------------------------|
G|----9----9---8---8---9---9---9---9---------9----9----9----9-8--|
D|-11---11---9---9---9---9---9---9---(x3)-11---11---11---11---9--|
A|---------------------------------------------------------------|
E|---------------------------------------------------------------|

Chorus (Guitar 1 - distortion)

e|------------------------------------------------------------------|
B|------------------------------------------------------------------|
G|------------------------------------------------------------------|
D|-9-----4-6-6----7-7--------------9-----9--------------------------|
A|-7-----2-4-4----5-5----7---7-7-7-7-----7-6-6----7-7----9---9-9-9--|
E|-----------------------5---5-5-5---------4-4----5-5----6---6-6-6--|
   
e|--------------------------------------|
B|--------------------------------------|
G|--------------------------------------|
D|-9-9-9-9---------6-6-6-6--------------|
A|-7-7-7-7-6-6-6-6-4-4-4-4-7-7-7-7-9-9--|
E|---------4-4-4-4---------5-5-5-5-7-7--|

Chorus (Guitar 2 - distortion)

e|------------------------------------------------------------------|
B|------------------------------------------------------------------|
G|-9-----7-6-6----7--7-7-7-6-6-6-6-9-----9-8-8----6-6---------------|
D|-x-----x-x-x----x--x-x-x-x-x-x-x-x-----x-x-x----x-x----8---8-8-8--|
A|-7-----5-4-4----5--5-5-5-4-4-4-4-7-----7-6-6----4-4----x---x-x-x--|
E|-------------------------------------------------------6---6-6-6--|
   
e|--------------------------------------|
B|--------------------------------------|
G|-4-4-4-4-5-5-5-5-6-6-6-6-6-6-6-6-8-8--|
D|-x-x-x-x-x-x-x-x-x-x-x-x-x-x-x-x-x-x--|
A|-2-2-2-2-3-3-3-3-4-4-4-4-4-4-4-4-6-6--|
E|--------------------------------------|

Bridge (Guitar 1 - palm muting & distortion)

e|------------------------------------------------------------------|
B|------------------------------------------------------------------|
G|------------------------------------------------------------------|
D|-----------------------------------------------4-4-4-4-4-4-4-4-4--|
A|-4-4-4-4-4-4-4-4-4-4-4-4-4-4-4-4-4-4-4-4-4-4-4--------------------|
E|------------------------------------------------------------------|

e|------------------------------------------------------------------|
B|------------------------------------------------------------------|
G|------------------------------------------------------------------|
D|-4-4-4-4-4-4-4-4-4-4-4-4-4-4-4-4-4-4-4-4-4-4-4-6-6-6-6-6-6-6-6-6--|
A|------------------------------------------------------------------|
E|------------------------------------------------------------------|

e|------------------------------------------------------------------|
B|------------------------------------------------------------------|
G|------------------------------------------------------------------|
D|-----------------------------------------------4-4-4-4-4-4-4-4-4--|
A|-4-4-4-4-4-4-4-4-4-4-4-4-4-4-4-4-4-4-4-4-4-4-4--------------------|
E|------------------------------------------------------------------|

e|------------------------------------------------------------------|
B|------------------------------------------------------------------|
G|------------------------------------------------------------------|
D|-4-4-4-4-4-4-4-4-4-4-4-4-4-4-4-4-4-4-4-4-4-4-4--------------------|
A|-----------------------------------------------0-0-0-0-2-2-2-2-2--|
E|------------------------------------------------------------------|

Bridge (Guitar 2)

e|------------------------------------------------------------------|
B|------------------------------------------------------------------|
G|------------------------------------------------------------------|
D|------------------------------------------------------------------|
A|-----------------------------------------------6-6-6-6-6-6-6-6-6--|
E|-2-2-2-2-2-2-2-1-1-1-1-1-1-1-1-1-0-0-0-0-0-0-0--------------------|

e|------------------------------------------------------------------|
B|------------------------------------------------------------------|
G|------------------------------------------------------------------|
D|------------------------------------------------------------------|
A|-5-5-5-5-5-5-5-4-4-4-4-4-4-4-4-4-5-5-5-5-5-5-5-7-7-7-7-7-7-7-7-7--|
E|------------------------------------------------------------------|

e|------------------------------------------------------------------|
B|------------------------------------------------------------------|
G|------------------------------------------------------------------|
D|-4-4-4-4-4-4-4-4-3-3-3-3-3-3-3-3-2-2-2-2-2-2-2-1-1-1-1-1-1-1-1-1--|
A|------------------------------------------------------------------|
E|------------------------------------------------------------------|

e|------------------------------------------------------------------|
B|------------------------------------------------------------------|
G|------------------------------------------------------------------|
D|-0-0-0-0-0-0-0-0-----------------2-2-2-2-2-2-2-1-1-1-1-1-1-1-1-1--|
A|-----------------4-4-4-4-4-4-4-4----------------------------------|
E|------------------------------------------------------------------|

I realize that you could mash those two guitar parts together into one part,
but FIF recorded the bridge in two different guitar parts in the studio.

Part 2 of the Bridge (when the revolution comes) is played the same way the 
prechorus is played.

Chorus-ish Outro (Guitar 1 - distortion)

e|---------------------------------------------|
B|---------------------------------------------|
G|---------------------------------------------|
D|-9-----4-6-6----7-7---------------(x6)-------|
A|-7-----2-4-4----5-5----7---7-7-7--------2-2--|
E|-----------------------5---5-5-5--------0-0--|

Outro (Guitar 2 - distortion)
  
e|-----------------------------------------|
B|-----------------------------------------|
G|-9\--------------------9\-----------6-6--|
D|-x\-(then clap a bunch)x\-(4 claps)-x-x--|
A|-7\--------------------7\-----------4-4--|
E|-----------------------------------------|

e|---------------------------------------------------------------------------|
B|---------------------------------------------------------------------------|
G|-9-9-9-7-6-6----7--7-7-7-6-6-6-6------9-9-9-7-6-6-7-6-7-6-7-6-7-6-7-6-9-9--|
D|-x-x-x-x-x-x----x--x-x-x-x-x-x-x-(x3)-x-x-x-x-x-x-x-x-x-x-x-x-x-x-x-x-x-x--|
A|-7-7-7-5-4-4----5--5-5-5-4-4-4-4------7-7-7-5-4-4-5-4-5-4-5-4-5-4-5-4-7-7--|
E|---------------------------------------------------------------------------|

that's it. if you have any questions or comments, e-mail me.

| /  slide up
| \  slide down
| h  hammer-on
| p  pull-off
| ~  vibrato
| +  harmonic
| x  Mute note
============================================================================
Добавлено: 05.04.2012
Другие материалы по этой песне:
  • Аккорды и текст

Страница создана 05.04.2012
http://primanota.ru/five-iron-frenzy/vultures-chords.htm
Привет, Гость.
Предлагаем пройти революционный курс по гитаре.
Подарок от PrimaNota.Ru, забирай!