PrimaNota.ru - самый крупный в мире бесплатный архив песенных текстов, аккордов, табулатур и нот


Five Iron Frenzy - Third World Think Tank - аккорды и текст, бас-таба, видео

Регистрация Запомнить меня
Войти через:  Facebook Google Twitter Vk Yandex Mail.ru

Five Iron Frenzy - Third World Think Tank - аккорды и текст, бас-таба, видео

Печатать
Просмотров: 205
Уроки эстрадного вокала в Санкт-Петербурге
Third World Think Tank
Five Iron Frenzy
(bass)

Verses:		[E-0-0-2-2-3-3-4-4------------------------------------------------------
A-------------------0-0-3-3-0-0-3-3--2-2-4-4--2/4----------2------2----
D------------------------------------------------1----1h2-2-0--2-2-0---
G----------------------------------------------------------------------

Prechorus:	E-0-0-2h3--------3---------------------
A-----------2h3h2--2-------2-----------
D----------------------1-4-1--1-4-1----
G--------------------------------------]

Chorus (There are several variations of it through the song;
just have fun with the riff)

[E-5-5-5-5-5-5-5-6-7-7-7-7-7------------
A-------------------------------9-7-6--
D--------------------------------------
G--------------------------------------]

"What's the deal, don't you feel alone now in the silence?..."

[E----------5-----------------------
A-7---------7-5-4-3-----5----------
D--6-9-6------------2--5--4-5-7----
G----------------------5-----------]

After "She was thinking Third World Think Tank!"

[E-----------------------------------
A---------7-----7-3-------5---------
D-7--------9-6-----2-3-2--4-5-7-----
G--6-9-6----------------------------]

Then it changes to
[E--------0-0-0-------3-3-3--------0-0-0-------------------
A-0-0-0-------3-3-3--------0-0-0--------3-3-3-5-5-5-------
D---------------------------------------------------------
G---------------------------------------------------------]
Добавлено: 05.01.2014
Другие материалы по этой песне:
  • Аккорды и текст

Страница создана 28.05.2012
http://primanota.ru/five-iron-frenzy/third-world-think-tank-chords.htm
Привет, Гость.
Предлагаем пройти революционный курс по гитаре.
Подарок от PrimaNota.Ru, забирай!