PrimaNota.ru - самый крупный в мире бесплатный архив песенных текстов, аккордов, табулатур и нот


Five Iron Frenzy - Thats How The Story Ends - текст песни, таба, видео

Регистрация Запомнить меня
Войти через:  Facebook Google Twitter Vk Yandex Mail.ru

Five Iron Frenzy - Thats How The Story Ends - текст песни, таба, видео

Печатать
Просмотров: 153
These chords are from higherpraise.com:

Intro
  [ch]F#m[/ch]
|--------------------------|--------------------------||
|----------10----------10--|----------10----------10--||
|----11----------11--------|----11----------11--------||
|-11----11----11----11-----|-11----11----11----11-----||
|--------------------------|--------------------------||
|--------------------------|--------------------------||


   Verse
    [ch]F#[/ch]                         [ch]A[/ch]
||------------------------------------|
||o-----------------------------------|
||--11-11-11-11-11-11-11-11-11--6-6-6-|
||------------------------------------|
||o--9--9--9--9--9--9--9--9--9--4-4-4-|
||------------------------------------|
|
|   Gtr II
||------------------------------------|
||o-----------------------------------|
||------------------------------------|
||---4--4--4--4--4--4--4--4--4-/7-7-7-|
||o-----------------------------------|
||---2--2--2--2--2--2--2--2--2-/5-5-5-|

  [ch]G#[/ch]                [ch]B[/ch]        [ch]A[/ch]                 [ch]C#[/ch]
|--------------------------|-------------------------------|
|--------------------------|-------------------------------|
|-4-4-4-4-4-4-4-4-4-/7-7-7-|-6-6-6-6-6-6-6-6-6--/9--9--9---|
|--------------------------|-------------------------------|
|-2-2-2-2-2-2-2-2-2-/5-5-5-|-4-4-4-4-4-4-4-4-4--/7--7--7---|
|--------------------------|-------------------------------|
|
|--------------------------|-------------------------------|
|--------------------------|-------------------------------|
|--------------------------|-------------------------------|
|-6-6-6-6-6-6-6-6-6-/9-9-9-|-7-7-7-7-7-7-7-7-7-/11-11-11---|
|--------------------------|-------------------------------|
|-4-4-4-4-4-4-4-4-4-/7-7-7-|-5-5-5-5-5-5-5-5-5--/9--9--9---|

  1st-3rd endings
  [ch]B[/ch]           [ch]D[/ch]                      4x
|------------------------------------||
|-----------------------------------o||
|-7-7-7-7-7-7-/10-10-10-10-10-10-10--||
|------------------------------------||
|-5-5-5-5-5-5--/8--8--8--8--8--8--8-o||
|------------------------------------||
|
|                                    4x
|------------------------------------||
|-----------------------------------o||
|------------------------------------||
|-9-9-9-9-9-9-/12-12-12-12-12-12-12--||
|-----------------------------------o||
|-7-7-7-7-7-7-/10-10-10-10-10-10-10--||

 4th ending
  [ch]D[/ch]                 [ch]A[/ch]XII
|-------------------------------------------||
|-------------------------------------------||
|--7--7--7--7--7--7-14-14-14-14-14-14-14-14-||
|-------------------------------------------||
|--5--5--5--5--5--5-12-12-12-12-12-12-12-12-||
|-------------------------------------------||
|
|-------------------------------------------||
|-------------------------------------------||
|-------------------14-14-14-14-14-14-14-14-||
|-12-12-12-12-12-12-------------------------||
|-------------------12-12-12-12-12-12-12-12-||
|-10-10-10-10-10-10-------------------------||


 Pre-Chorus
                  1st, 2nd endings   3rd ending
    [ch]B[/ch]     [ch]A[/ch]        [ch]G#[/ch]                  [ch]G#[/ch]  [ch]G5[/ch]
||---------------|------------------||-------------|
||o--------------|-----------------o||-------------|
||---------------|-------2----------||-------------|
||--9\----7--7\--|-6\--4---4--2-0---||-6\--5-5-----|
||o--------------|-----------------o||-----5-5-----|
||--7\----5--5\--|-4\---------------||-4\--3-3-----|


 Chorus
                             1st, 2nd endings
    [ch]D5[/ch]          [ch]E5[/ch]            [ch]G5[/ch]                          3x
||--------------------------|-----------------------------||
||o-------------------------|----------------------------o||
||--7-7-7-7-7-7-9-9-9-9-9-9-|-------11-11-11-9-9-9-14-14--||
||--------------------------|-5-5-5-----------------------||
||o-5-5-5-5-5-5-7-7-7-7-7-7-|--------9--9--9-7-7-7-12-12-o||
||--------------------------|-3-3-3-----------------------||
|                                                         
||--------------------------|-----------------------------||
||o-------------------------|----------------------------o||
||--7-7-7-7-7-7-9-9-9-9-9-9-|-----------------------------||
||--7-7-7-7-7-7-9-9-9-9-9-9-|-5-5-5--5--5--5-5-5-5--5--5--||
||o-5-5-5-5-5-5-7-7-7-7-7-7-|-5-5-5--5--5--5-5-5-5--5--5-o||
||--------------------------|-3-3-3--3--3--3-3-3-3--3--3--||

  3rd ending
  [ch]G5[/ch]
|--------------------------------|
|--------------------------------|
|-12-12-12-12-12-12-11-11-11-7-7-|
|--------------------------------|
|-10-10-10-10-10-10--9--9--9-5-5-|
|--------------------------------|
|
|--------------------------------|
|--------------------------------|
|--------------------------------|
|--5--5--5--5--5--5--5--5--5-5-5-|
|--5--5--5--5--5--5--5--5--5-5-5-|
|--3--3--3--3--3--3--3--3--3-3-3-|
                                 
  [ch]A5[/ch]          [ch]D5[/ch]            E5open      [ch]C#7+9[/ch]
|-------------------------|-------------------||
|-------------------------|-------------------||
|-9-9-9-9---9-11---11-7---|-9-9-9-9-9-9-6-6---||
|-------------------------|-------------------||
|-7-7-7-7---7--9----9-5---|-7-7-7-7-7-7-4-4---||
|-------------------------|-------------------||
|
|-------------------------|-------------------||
|-------------------------|-------------5-5---||
|--------------7-7--7-7-7-|-------------4-4---||
|-7-7-7-7-7-7--7-7--7-7-7-|-2-2-2-2-2-2-3-3---||
|-7-7-7-7-7-7--5-5--5-5-5-|-2-2-2-2-2-2-4-4---||
|-5-5-5-5-5-5-------------|-0-0-0-0-0-0-------||


   Verse 2
    [ch]F#[/ch]                [ch]A[/ch]        [ch]G#[/ch]                 [ch]B[/ch]
    Palm mute
||---------------------------|--------------------------|
||o--------------------------|--------------------------|
||---------------------------|--------------------------|
||---------------------------|--------------------------|
||o-9-9-9-9-9-9-9-9-9----9-9-|--------------------------|
||---------------------5-----|-7-7-7-7-7-7-7-7-7-10-7-7-|
|   
||---------------------------|--------------------------|
||o--------------------------|--------------------------|
||---------------------------|--------------------------|
||---------------------------|--------------------------|
||o--------------------------|--------------------------|
||--2-2-2-2-2-2-2-2-2-/5-5-5-|-4-4-4-4-4-4-4-4-4-/7-7-7-|

                              1st-3rd endings
   [ch]A[/ch]                 [ch]C#[/ch]         [ch]B[/ch]                 [ch]D[/ch]                    4x
|----------------------------|-----------------------------------------||
|----------------------------|----------------------------------------o||
|----------------------------|-----------------------------------------||
|----------------------------|-----------------------------------------||
|----------------------------|---------------------8--8--8-8----8-8---o||
|-9-9-9-9-9-9-9-9-9-12-9-9---|-10-10-10-10-10-10-----------------------||
|
|----------------------------|-----------------------------------------||
|----------------------------|----------------------------------------o||
|----------------------------|-----------------------------------------||
|----------------------------|-----------------------------------------||
|----------------------------|----------------------------------------o||
|-5-5-5-5-5-5-5-5-5-/9-9-9---|--7--7--7--7--7--7-/10-10-10-9-10-9\-----||

 4th ending                         
  [ch]D[/ch]                 [ch]A[/ch]XII
|--------------------------------------||
|--------------------------------------||
|--------------------------------------||
|--------------------------------------||
|-------------------12-12-12-11-12-11\-||
|-10-10-10-10-10-10--------------------||
|
|--------------------------------------||
|--------------------------------------||
|--------------------------------------||
|--------------------------------------||
|-------------------12-12-12-11-12-11\-||
|-10-10-10-10-10-10--------------------||

 Play Pre-Chorus and Chorus again, then:

 Bridge
    [ch]Bm7[/ch]                                   [ch]E7[/ch]
||--------5-------5--|-------5-------5--|-------4-------4--|-------4-------4-|
||o---3-------3------|---3-------3------|---3-------3------|---3-------3-----|
||--4---4---4---4----|-4---4---4---4----|-4---4---4---4----|-4---4---4---4---|
||-------------------|------------------|------------------|-----------------|
||o------------------|------------------|------------------|-----------------|
||-------------------|------------------|------------------|-----------------|
|
||-------------------|------------------|------------------|-----------------|
||o------------------|------------------|------------------|-----------------|
||--------4-------4--|-------4-------4--|-------1-------1--|-------1-------1-|
||----0-------0------|---0-------0------|---0-------0------|---0-------0-----|
||o-2---2---2---2----|-2---2---2---2----|-2---2---2---2----|-2---2---2---2---|
||-------------------|------------------|------------------|-----------------|

  [ch]D/B[/ch]                                   [ch]D[/ch]                  [ch]A[/ch]                2x
|-------2-------2--|-------2-------2--|------------------|-------0-------0--||
|---3-------3------|---3-------3------|-------3-------3--|---2-------2-----o||
|-4---4---4---4----|-4---4---4---4----|---2-------2------|-2---2---2---2----||
|------------------|------------------|-0---0---0---0----|------------------||
|------------------|------------------|------------------|-----------------o||
|------------------|------------------|------------------|------------------||
|
|------------------|------------------|-------2-------2--|------------------||
|------------------|------------------|---3-------3------|-------2-------2-o||
|------------------|------------------|-2---2---2---2----|---2-------2------||
|-------4-------4--|-------4-------4--|------------------|-2---2---2---2----||
|---5-------5------|---5-------5------|------------------|-----------------o||
|-3---3---3---3----|-3---3---3---3----|------------------|------------------||

                  [ch]E5[/ch]
|---------|---------------|
|--bass---|---------------|
|--fill---|---------------|
|---------|-------2-2-2-2-|
|---------|-------2-2-2-2-|
|---------|-------0-0-0-0-|
|
|---------|---------------|
|---------|---------------|
|---------|---------------|
|---------|-------2-2-2-2-|
|---------|-------2-2-2-2-|
|---------|-------0-0-0-0-|

  [ch]F#[/ch]                         [ch]A[/ch]        [ch]G#[/ch]          [ch]G5[/ch]
|-----------------------------------|-------------------|
|-----------------------------------|-------------------|
|-11-11-11-11-11-11-11-11-11--6-6-6-|-4-4-4-4-4-4-4-4---|
|-----------------------------------|-------------------|
|--9--9--9--9--9--9--9--9--9--4-4-4-|-2-2-2-2-2-2-2-2---|
|-----------------------------------|-------------------|
|
|-----------------------------------|-------------------|
|-----------------------------------|-------------------|
|-----------------------------------|-------------------|
|--4--4--4--4--4--4--4--4--4-/7-7-7-|-6-6-6-6-6-6-5-5---|
|-----------------------------------|-------------5-5---|
|--2--2--2--2--2--2--2--2--2-/5-5-5-|-4-4-4-4-4-4-3-3---|


 Out-Chorus
                             1st-2nd endings
    [ch]D5[/ch]          [ch]E5[/ch]            [ch]G5[/ch]                          3x
||--------------------------|-----------------------------||
||o-------------------------|----------------------------o||
||--7-7-7-7-7-7-9-9-9-9-9-9-|-------11-11-11-9-9-9-14-14--||
||--------------------------|-5-5-5-----------------------||
||o-5-5-5-5-5-5-7-7-7-7-7-7-|--------9--9--9-7-7-7-12-12-o||
||--------------------------|-3-3-3-----------------------||
|                                                         3x
||--------------------------|-----------------------------||
||o-------------------------|----------------------------o||
||--7-7-7-7-7-7-9-9-9-9-9-9-|-----------------------------||
||--7-7-7-7-7-7-9-9-9-9-9-9-|-5-5-5--5--5--5-5-5-5--5--5--||
||o-5-5-5-5-5-5-7-7-7-7-7-7-|-5-5-5--5--5--5-5-5-5--5--5-o||
||--------------------------|-3-3-3--3--3--3-3-3-3--3--3--||

 3rd ending
  [ch]G5[/ch]
|---------------------------------|
|---------------------------------|
|-12-12-12-12-12-12-11-11-11-7-7--|
|---------------------------------|
|-10-10-10-10-10-10--9--9--9-5-5--|
|---------------------------------|
|
|---------------------------------|
|---------------------------------|
|---------------------------------|
|--5--5--5--5--5--5--5--5--5-5-5--|
|--5--5--5--5--5--5--5--5--5-5-5--|
|--3--3--3--3--3--3--3--3--3-3-3--|

  [ch]A5[/ch]          [ch]D5[/ch]            [ch]E5[/ch]          [ch]C#7+9[/ch]   [ch]F#5[/ch]
|-------------------------|-------------------|----------|
|-------------------------|-------------------|----------|
|-9-9-9-9---9-11---11-7---|-9-9-9-9-9-9-6-6---|----------|
|-------------------------|-------------------|-4--------|
|-7-7-7-7---7--9----9-5---|-7-7-7-7-7-7-4-4---|-4--------|
|-------------------------|-------------------|-2--------|
|
|-------------------------|-------------------|----------|
|-------------------------|-------------5-5---|----------|
|--------------7-7--7-7-7-|-------------4-4---|----------|
|-7-7-7-7-7-7--7-7--7-7-7-|-2-2-2-2-2-2-3-3---|-4--------|
|-7-7-7-7-7-7--5-5--5-5-5-|-2-2-2-2-2-2-4-4---|-4--------|
|-5-5-5-5-5-5-------------|-0-0-0-0-0-0-------|-2--------|

Please comment/rate--God bless!

-Romans 10:9-10;13
Добавлено: 21.04.2015
Другие материалы по этой песне:

Страница создана 05.05.2012
http://primanota.ru/five-iron-frenzy/thats-how-the-story-ends-chords.htm
Привет, Гость.
Предлагаем пройти революционный курс по гитаре.
Подарок от PrimaNota.Ru, забирай!