PrimaNota.ru - самый крупный в мире бесплатный архив песенных текстов, аккордов, табулатур и нот


Five Iron Frenzy - One Girl Army - текст песни, таба, бас-таба, видео

Регистрация Запомнить меня
Войти через:  Facebook Google Twitter Vk Yandex Mail.ru

Five Iron Frenzy - One Girl Army - текст песни, таба, бас-таба, видео

Печатать
Просмотров: 132
I was honestly disappointed when I saw that only one bass tab was made for this song 
(with no guitar tab). :/
So, I took my good old MH-103QM and figured out the lead riffs for you! :-D This has to
 be one of my favorite songs by FIF, enjoy!

PLEASE READ: I HAVE PLACED THE ORDER OF PLAY AND NOTATION LEGEND AT THE END OF MY TAB!!!
I UNDERSTAND IT SUCKS HAVING TO READ EVERYTHING BUT IT WILL HELP GREATLY, THANKS!

Intro

e|---------|---------|---------|----------|--------------|----------|-----------|
B|---------|---------|---------|----------|--------------|----------|-----------|
G|-2~------|-5~--7~--|---------|-2-2-22-2-|--------------|-2-2-22-2-|-----------|
D|-2~--5~--|-5~--7~--|-3~--5~--|-2-2-22-2-|-3-33/10-1010-|-2-2-22-2-|-55-5-5555-|
A|-0~--5~--|-3~--5~--|-3~--5~--|-0-0-00-0-|-3-33/10-1010-|-0-0-00-0-|-55-5-5555-|
E|-----3~--|---------|-1~--3~--|----------|-1-11/8--8-8--|----------|-33-3-3333-|

e|----------|-----------|----------|-----------|------|
B|----------|-----------|----------|-----------|------|
G|-5-5-55-5-|-77-7-7777-|----------|-----------|------|
D|-5-5-55-5-|-77-7-7777-|-3-3-33-3-|-55-5-5555-|-2~---|
A|-3-3-33-3-|-55-5-5555-|-3-3-33-3-|-55-5-5555-|-2~---|
E|----------|-----------|-1-1-11-1-|-33-3-3333-|-0~---|


Verse (play 4 times)

e|---------------------|---------------------|----------------------|-----------------|
B|---------------------|---------------------|----------------------|-----------------|
G|-----5---------------|-----5---------------|----------------------|-----------------|
D|-7-7---7-------5-----|-7-7---7---------5---|---------7---------7--|-----2---2---0---|
A|---------7-7-7---7-7-|---------7-7-7-7---7-|-5-5---5---5-5-5-5--5-|-3-3---3---1---1-|
E|---------------------|---------------------|----------------------|-----------------|

Chorus 1

e|-------|-----------|--------------|------|-------|-------|-------|--------|
B|-------|-----------|--------------|------|-------|-------|-------|--------|
G|-14----|-13/14/16/-|-17\16\14\12\-|-11---|-14----|-12----|-14----|-16-----|
D|-x-----|-x-/x-/x-/-|-x-\x-\x-\x-\-|-x----|-x-----|-x-----|-x-----|-x------|
A|-12----|-11/12/14/-|-15\14\12\10\-|-9----|-12----|-10----|-12----|-14-----|
E|-------|-----------|--------------|------|-------|-------|-------|--------|
   #       #  #  #     #  #  #  #     #      #       #       #       #

Chorus 2

e|-------|-----------|--------------|------|-------|-------|-------|--------|
B|-------|-----------|--------------|------|-------|-------|-------|--------|
G|-14----|-13/14/16/-|-17\16/17/19\-|-14---|-14----|-12----|-14----|-16-----|
D|-x-----|-x-/x-/x-/-|-x-\x-/x-/x-\-|-x----|-x-----|-x-----|-x-----|-x------|
A|-12----|-11/12/14/-|-15\14/15/17\-|-12---|-12----|-10----|-12----|-14-----|
E|-------|-----------|--------------|------|-------|-------|-------|--------|
   #       #  #  #     #  #  #  #     #      #       #       #       #

Bridge

e|------------------------|-----------------------|------------------------|
B|------------------------|-----------------------|------------------------|
G|------------------------|-----------------------|------------------------|
D|------------------------|-----------------------|------------------------|
A|-0-0-023--023--023------|-0-0-023--023--023--2--|-0-0-023--023--023------|
E|--------3----3----3-0h3-|--------3----3----3--4-|--------3----3----3-0h3-|
   * * **** **** **** * *   * * **** **** **** **   * * **** **** **** * *

e|-----------------------|------------------------|-----------------------|
B|-----------------------|------------------------|-----------------------|
G|-----------------------|------------------------|-----------------------|
D|-----------------------|------------------------|-----------------------|
A|-0-0-023--023--023--2--|-0-0-023--023--023------|-0-0-023--023--023--2--|
E|--------3----3----3--4-|--------3----3----3-0h3-|--------3----3----3--4-|
   * * **** **** **** **   * * **** **** **** * *   * * **** **** **** **

e|------------------------|-------------------------|
B|------------------------|-------------------------|
G|------------------------|-------------------------|
D|------------------------|-------------------------|
A|-0-0-023--023--023------|-0-0-023--023--023-------|
E|--------3----3----3-0h3-|--------3----3----3-3-0~-|
   * * **** **** **** * *   * * **** **** **** *

Final Chorus (just play Chorus 1 and 2 together)

Ending

e|---------|---------|---------|----------|--------------|----------|-----------|
B|---------|---------|---------|----------|--------------|----------|-----------|
G|-2~------|-5~--7~--|---------|-2-2-22-2-|--------------|-2-2-22-2-|-----------|
D|-2~--5~--|-5~--7~--|-3~--5~--|-2-2-22-2-|-3-33/10-1010-|-2-2-22-2-|-55-5-5555-|
A|-0~--5~--|-3~--5~--|-3~--5~--|-0-0-00-0-|-3-33/10-1010-|-0-0-00-0-|-55-5-5555-|
E|-----3~--|---------|-1~--3~--|----------|-1-11/8--8-8--|----------|-33-3-3333-|

e|----------|-----------|----------|-----------|------|-------|
B|----------|-----------|----------|-----------|------|-------|
G|-5-5-55-5-|-77-7-7777-|----------|-----------|------|-------|
D|-5-5-55-5-|-77-7-7777-|-3-3-33-3-|-55-5-5555-|-2~---|-7~-7\-|
A|-3-3-33-3-|-55-5-5555-|-3-3-33-3-|-55-5-5555-|-2~---|-7~-7\-|
E|----------|-----------|-1-1-11-1-|-33-3-3333-|-0~---|-5~-5\-|
                                                        >  >

Order of Play:
Intro
Verse
Chorus 1
Intro
Verse
Chorus 2
Bridge
Final Chorus
Ending

Legend:
> Accent Mark
h Hammer On
~ Let Ring
x Mute String
* Palm Mute
/ Slide Up
\ Slide Down
# Tremolo Pick

Well, that;s it. Sorry there is no rhythm tab--I suck at ska chords :/
Please comment/rate, God bless!!! :-D 

If Micah and/or Sonnie happen to see this tab, thanks for being such a musical 
inspiration to me! :-D

-Romans 10:9-10;13
Добавлено: 08.08.2014
Другие материалы по этой песне:
  • Аккорды и текст

Страница создана 31.05.2012
http://primanota.ru/five-iron-frenzy/one-girl-army-chords.htm
Привет, Гость.
Предлагаем пройти революционный курс по гитаре.
Подарок от PrimaNota.Ru, забирай!