PrimaNota.ru - самый крупный в мире бесплатный архив песенных текстов, аккордов, табулатур и нот


Five Iron Frenzy - Hurricanes - текст песни, таба, видео

Регистрация Запомнить меня
Войти через:  Facebook Google Twitter Vk Yandex Mail.ru

Five Iron Frenzy - Hurricanes - текст песни, таба, видео

Печатать
Просмотров: 159
This tab is from higherpraise.com:

Intro Lead:(!PLAY PALM MUTED!)
e-----------------------------------------------------------------|
b-----------------------------------------------------------------|
g-----------------------------------------------------------------|
D----9-9-9-9-10-9----9-9-9-9-10-9-----9-9-9-9-10-9----7-7-7-7-9-7-|
A--7---------------7---------------10---------------9-------------|
E-----------------------------------------------------------------|

Intro Rythm: (!PLAY WITH A SKA FEEL!)
e-7-7-7-7-7--7-7-7-7---3-3-3-3-3---2-2-2-2-|
b-8-8-8-8-8--7-7-7-7---3-3-3-3-3---3-3-3-3-|
g-9-9-9-9-9--9-9-9-9---4-4-4-4-4---2-2-2-2-|
D-9-9-9-9-9--9-9-9-9---5-5-5-5-5-----------|
A-7-7-7-7-7--7-7-7-7---5-5-5-5-5-----------|
E----------------------3-3-3-3-3-----------|

Verse 1:
e-7-7-7-7-7--7-7-7-7---3-3-3-3-3---2-2-2-2-|
b-8-8-8-8-8--7-7-7-7---3-3-3-3-3---3-3-3-3-|
g-9-9-9-9-9--9-9-9-9---4-4-4-4-4---2-2-2-2-|
D-9-9-9-9-9--9-9-9-9---5-5-5-5-5-----------|
A-7-7-7-7-7--7-7-7-7---5-5-5-5-5-----------|
E----------------------3-3-3-3-3-----------|

Like songs from a siren | Hurricanes from the past
e-5-5-5-5-5-5-5-5-------|-3-3-3-3--2-2-2-2-|
b-5-5-5-5-5-5-5-5-------|-3-3-3-3--3-3-3-3-|
g-7-7-7-7-7-7-7-7-------|-4-4-4-4--2-2-2-2-|
D-7-7-7-7-7-7-7-7-------|-5-5-5-5----------|
A-5-5-5-5-5-5-5-5-------|-3-3-3-3----------|
E-5-5-5-5-5-5-5-5-------|-3-3-3-3----------|

And I am a faliure      | Defeated every time
e--8--8--8--8--8--8--8--8-|-2-2-2-2-2-2-2-2-|
b-10-10-10-10-10-10-10-10-|-3-3-3-3-3-3-3-3-|
g-10-10-10-10-10-10-10-10-|-2-2-2-2-2-2-2-2-|
D-10-10-10-10-10-10-10-10-|-----------------|
A--8--8--8--8--8--8--8--8-|-----------------|
E--8--8--8--8--8--8--8--8-|-----------------|

So let me lie here | A sidewalk for a shrine
e-7-7---5-5--------|--3-3--7-7--7-7---|
b-8-8---5-5--------|--3-3--7-7--8-8---|
g-9-9---5-5--------|--4-4--8-8--9-9---|
D-9-9---6-6--------|--5-5--9-9--9-9---|
A-7-7---6-6--------|--5-5--9-9--7-7---|
E-------5-5--------|--3-3--7-7--------|

Iiiiiiiiiiiiiiiiiiii am  so lonely
e--8--8--8--8--8--8--8--8--7-7-7-7-7-7-7-7-|
b--8--8--8--8--8--8--8--8--7-7-7-7-7-7-7-7-|
g--9--9--9--9--9--9--9--9--8-8-8-8-8-8-8-8-|
D-10-10-10-10-10-10-10-10--9-9-9-9-9-9-9-9-|
A-10-10-10-10-10-10-10-10--9-9-9-9-9-9-9-9-|
E--8--8--8--8--8--8--8--8--7-7-7-7-7-7-7-7-|

They say you're lonely too
e--8--8--8--8--8--8--8--7-7-7-7-7-7-7-7-|
b--8--8--8--8--8--8--8--7-7-7-7-7-7-7-7-|
g--9--9--9--9--9--9--9--8-8-8-8-8-8-8-8-|
D-10-10-10-10-10-10-10--9-9-9-9-9-9-9-9-|
A-10-10-10-10-10-10-10--9-9-9-9-9-9-9-9-|
E--8--8--8--8--8--8--8--7-7-7-7-7-7-7-7-|

Dear God be my savior | I'll wait for you
e-7-7-7-7--7-7-7-7----|-3-3-3-3---2-2-2-2-|
b-8-8-8-8--7-7-7-7----|-3-3-3-3---3-3-3-3-|
g-9-9-9-9--9-9-9-9----|-4-4-4-4---2-2-2-2-|
D-9-9-9-9--9-9-9-9----|-5-5-5-5-----------|
A-7-7-7-7--7-7-7-7----|-5-5-5-5-----------|
E---------------------|-3-3-3-3-----------|

Bridge:
I'm pining for your mercy | For this storm to break
e-5-5-5-5-5-5-5--4-4-4-4--|-3-3-3-3-3-3-3---2-2-2-2-|
b-5-5-5-5-5-5-5--5-5-5-5--|-3-3-3-3-3-3-3---3-3-3-3-|
g-6-6-6-6-6-6-6--4-4-4-4--|-4-4-4-4-4-4-4---2-2-2-2-|
D-7-7-7-7-7-7-7-----------|-5-5-5-5-5-5-5-----------|
A-7-7-7-7-7-7-7-----------|-5-5-5-5-5-5-5-----------|
E-5-5-5-5-5-5-5-----------|-3-3-3-3-3-3-3-----------|

Lord you are my comfort        | The hope for which I wait
e-1-1-1-1-1-1-1--0-0-0-0-0-0-0-|-2-2-2-2-2-2-2--0-0-0-0-0-0-0-|
b-1-1-1-1-1-1-1--1-1-1-1-1-1-1-|-4-4-4-4-4-4-4--0-0-0-0-0-0-0-|
g-2-2-2-2-2-2-2--0-0-0-0-0-0-0-|-4-4-4-4-4-4-4--1-1-1-1-1-1-1-|
D-3-3-3-3-3-3-3--2-2-2-2-2-2-2-|-4-4-4-4-4-4-4--2-2-2-2-2-2-2-|
A-3-3-3-3-3-3-3--3-3-3-3-3-3-3-|-2-2-2-2-2-2-2--2-2-2-2-2-2-2-|
E-1-1-1-1-1-1-1----------------|-2-2-2-2-2-2-2--0-0-0-0-0-0-0-|

Please comment/rate--God bless!

-Romans 10:9-10;13
Добавлено: 21.04.2015
Другие материалы по этой песне:
  • Аккорды и текст

Страница создана 21.03.2012
http://primanota.ru/five-iron-frenzy/hurricanes-chords.htm
Привет, Гость.
Предлагаем пройти революционный курс по гитаре.
Подарок от PrimaNota.Ru, забирай!