PrimaNota.ru - самый крупный в мире бесплатный архив песенных текстов, аккордов, табулатур и нот


Five Iron Frenzy - The final coundown - таба, видео

Регистрация Запомнить меня
Войти через:  Facebook Google Twitter Vk Yandex Mail.ru

Five Iron Frenzy - The final coundown - таба, видео

Печатать
Просмотров: 100



Five Iron Frenzy (LIVE)
Proof that the youth are revolting
The Final Countdown
Tabbed by Wifesterbb@hotmail.com
Bass Tab


G|-----------------------------------------|
D|-----------------------------------------|
A|---------8----5----7---------8----5----7-|
E|----5--------------------5---------------|

G|------------------------------------------|
D|------------------------------------------|
A|---------------------5-5-7-77777777777777-|
E|--5--553--331--11-------------------------|

G|----------------------------------------|
D|----------------------------------------|
A|-----------------------8-888-888-888-885|
E|--5-555-555-555-55----------------------|

G|-----------------------------------| x2
D|-----------------------------------|
A|-555-555-555-557-777-777-777-77----|
E|-----------------------------------|

G|----------------------------------------|
D|----------------------------------------|
A|------------------5-5-7-77777777777777--|
E|--5-553-331-11--------------------------|


Trombone Tab     H= higher  L= lower
1-4 are slide positions

Riff 1  |--2H-4L-2H-2L---------------------|
Riff 2  |--1H-2L-1H-2L-4L------------------|
Riff 3  |--1H-2L-1H-2L---------------------|
Riff 4  |--4H-3L-4H-3L-4L-4H---------------|   x2

Riff 9  |--3L--4L-3H-4H--3L-4H-2H--4L--3L--4L--2L|
Riff 10 |--1H--2L-------------2H-4L-2H-----------|
                PLAY THE WHOLE THING TWICE

Добавлено: 12.02.2014
Другие материалы по этой песне:
  • Аккорды и текст

Страница создана 12.02.2014
http://primanota.ru/five-iron-frenzy/final-coundown-chords.htm
Привет, Гость.
Предлагаем пройти революционный курс по гитаре.
Подарок от PrimaNota.Ru, забирай!