PrimaNota.ru - самый крупный в мире бесплатный архив песенных текстов, аккордов, табулатур и нот


Five Iron Frenzy - Far Far Away - текст песни, таба, видео

Регистрация Запомнить меня
Войти через:  Facebook Google Twitter Vk Yandex Mail.ru

Five Iron Frenzy - Far Far Away - текст песни, таба, видео

Печатать
Просмотров: 105
INTRO 

Electric 1
(listen to song)
E|----------------------|
B|----------------------|
G|----------------------|
D|-12-xabout12-15-15-x2-|
A|-12----------12-12----|
E|----------------------|

VERSE (part 1)

Electric 1

E|--------------------------------------------|
B|--------------------------------------------|
G|--------------------------------------------|
D|-12-xabout12-15-15-x2--14-xabout12-15-15-x2-|
A|-12----------12-12-----13----------13-13----|
E|--------------------------------------------|

VERSE (part 2)

Electric 1

E|--------------------------------------------|
B|--------------------------------------------|
G|--------------------------------------------|
D|-12-xabout12-15-15-x2--14-xabout12-15-15-x2-|
A|-12----------12-12-----13----------13-13----|
E|--------------------------------------------|

Electric 2

E|------------------------|
B|------------------------|
G|------------------------|
D|------------------------|
A|---3---5-x2----5---7-x2-|
E|-5---5-------6---6------|

CHORUS

Electric 1

E|-----------------------------------------|
B|-----------------------------------------|
G|-17-17\15-15\14\12-12\10-10--12/15\14\12-|
D|-x--x--x--x--x--x--x--x--x---x--x--x--x--|
A|-15-15\13-13\12\10-10\8--8---10/13\12\10-|
E|-----------------------------------------|

Electric 2

E|------------|
B|------------|
G|-10---------|
D|-10-8-12-10-|
A|-8--8-12-10-|
E|----6-10-8--|

VERSE 

Electric 2

E|---------------------------------|
B|---------------------------------|
G|---------------------------------|
D|---------------------------------|
A|---3---5---5---x2----5---7---7-5-|
E|-5---5---5---8-----6---6---6-----|

CHORUS

BRIDGE

Electric 1+2

E|----------------------------|
B|----------------------------|
G|-10-9-7-5-----10-9-7-5------|
D|-10-9-7-5-8-7-10-9-7-5-8-10-|
A|-8--7-5-3-8-7-8--7-5-3-8-10-|
E|----------6-5----------6-8--|

HORN SOLO

Play this....

Electric 2

E|--------------------------------------------------|
B|--------------------------------------------------|
G|--------------------------------------------------|
D|--------------------------------------------------|
A|---3---5---5-3---------x2----5---7---7-5----------|
E|-5---5---5-----5-5-3-5-----6---6---6-----6-6-5-6--|

VERSE

Electric 2

E|--------------------------------------------------|
B|--------------------------------------------------|
G|--------------------------------------------------|
D|--------------------------------------------------|
A|---3---5---5-3---------x2----5---7---7-5----------|

CHORUS


E|-5---5---5-----5-5-3-5-----6---6---6-----6-6-5-6--|
Добавлено: 30.07.2013
Другие материалы по этой песне:
  • Аккорды и текст

Страница создана 30.07.2013
http://primanota.ru/five-iron-frenzy/far-far-away-chords.htm
Привет, Гость.
Предлагаем пройти революционный курс по гитаре.
Подарок от PrimaNota.Ru, забирай!